Cifra Club

Aprenda

Eu Navegarei

Católicas

Cifra: Versão 3 (violão e guitarra)
tom: C
E|------------------------------------------------------------------------------|
B|-5-3-1-3-5--------------------------------------------------------------------|
G|--------------5-5-5-5-5-10-8-10-8-8----8-6-5-3-5-6------6-6-6-10-8-5----------|
D|------------------------------------------------------------------------------|
A|------------------------------------------------------------------------------|
E|------------------------------------------------------------------------------|

E|----------------------------------------------|
B|-1-1-0---0-1-0----1-1-1-3-1-0-----------------|
G|-------2-------2--------------2-0-2-4---------|
D|----------------------------------------------|1 refrão
A|----------------------------------------------|
E|----------------------------------------------|

E|---------------------------------------------------------|
B|---------------------------------------------------------|
G|-4-4-4-5-4-2-0---0-2------2-2-2-4-2-1------------------- |
D|---------------3----------------------4-2-4-6------------|    2 refrão  (repete as 2 partes do refrão 2x)
A|---------------------------------------------------------|
E|---------------------------------------------------------|

Obs: as notas que seguem o solo são Am G F (D#m) E (sempre nessa ordem).
Composição de Pastor Azmaveth Carneiro Da Silva
Colaboração e revisão:
84.060 exibições
  • Simplificar cifra
    • ½ Tom
    • A
    • Bb
    • B
    • C
    • Db
    • D
    • Eb
    • E
    • F
    • F#
    • G
    • Ab
  • Adicionar à lista

    0 comentários

    Ver todos os comentários
    00:00 / 00:00
    outros vídeos desta música
    repetir qualidade Automático
    Outros vídeos desta música
    00:00 / 00:00
    Automático

    Cifra Club Pro

    Aproveite o Cifra Club com benefícios exclusivos e sem anúncios
    Cifra Club Pro
    Aproveite o Cifra Club com benefícios exclusivos e sem anúncios
    OK