Cifra Club

Down Em Mim

Cazuza

Cifra: Principal
exibições 189.280
Tom: C
        Am
Eu não sei o que o meu corpo abriga
        G
Nestas noites quentes de verão
   E7
E nem me importa que mil raios partam
             Am             G
Qualquer sentido vago de razão

             Am
Eu ando tão down
             G
Eu ando tão down

E7
Outra vez vou te cantar, vou te gritar
        F7
Te rebocar do bar
Am
E as paredes do meu quarto vão assistir comigo
      G
A versão nova de uma velha história
E7
E quando o sol vier socar minha cara
        Am                 G
Com certeza você já foi embora

             Am
Eu ando tão down
             G
Eu ando tão down

E7
Outra vez vou me esquecer
                   F7
Pois nestas horas pega mal sofrer
Am
  Da privada eu vou dar com a minha cara
G
  De panaca pintada no espelho
          E7
E me lembrar, sorrindo, que o banheiro
       Am               G
É a igreja de todos os bêbados

             Am
Eu ando tão down
             G
Eu ando tão down
             E7
Eu ando tão down
         F7
Down... down

( Am  G  E7  F7 )

             Am    G
Eu ando tão down

[Solo] Am  G  E7  Am
       Am  G  E7  Am

E|---------15-15/17-15/17-|-------15-17-19b-15-17-15p17-----------15----|
B|-15-17------------------|-15/17-----------------------17-15-17-----17-|
G|------------------------|---------------------------------------------|

E|-----------|
B|-15-13-----|
G|-------14--|

E|-17---------------------------------------------------------|
B|----17-15-13-15--------13------------------------------13---|
G|-----------------12p14----14-12-----------12p14-12p14-------|
D|---------------------------------14-12p14-------------------|

E|------------------5--3-----------|---------13/15—13-12-------------|
B|-------3-3/5----5---5--3b-1-3-1--|------8--------------15-13-------|
G|-0p2-4---------------------------|-7/9-----------------------14-12-|

B|-------------------------------------------------------------|
G|--------12--12--12-—12—-12-----12---12-----12---11----10--9--|
D|-12/14--14b-14b-14b-14b-14b-14---14---14-13---12----11—-10---|
A|-------------------------------------------------------------|

B|----------------------------------------------------15b-13--|
G|----------------------------------------------12-14---------|
D|-10-12----12-10----12-10-------10-12-10-12/14---------------|
A|-------12-------12-------12-12------------------------------|

             Am
Eu ando tão down
             G
Eu ando tão down
Acordes para:
    Colaboração e revisão:
    • Lucas Kappaun
    • Luiz Guerra

    0 comentários

      mostrar mais comentários

      Conseguiu tocar?

      24tocaram0ainda não

      Grave um vídeo tocando Down Em Mim e mande pra gente!

      00:00 / 00:00
      outros vídeos desta música
      repetirqualidadeautomática
      Outro vídeos desta música
        00:00 / 00:00
        automática
        OK