Cifra Club

Aprenda

Exagerado

Cazuza

Tab de baixo: Principal
Versão: Ao Vivo

Ouça a musica nessa versão e pegue o tempo!
 
-Introdução: Vai Assim ate começa a primeira parte
G:-----------------------------------------------------
D:-----------------------------------------------------
A:-----------------------------------------------------
E: 3--3--3--3--3--3--3--3--3--3--3--3--3--3--3--3--3---


Primeira Parte: ...Amor da minha vida, daqui até a eternidade... 
G:---------------------------------------------------------
D:---------------------------------------------------------
A:---------------------------------5--5--3----3---3---3----
E:3--3--3--3--3--3--3--3--3--3--3--------------------------

Segunda Parte:...nossos destinos foram traçados na maternidade... 
G:--------------------------------------------------------
D:--------------------------------------------------------
A:------------------5--5--5--5--5--5---3--3--3--3--3--3---
E:0--0--0--0--0--0----------------------------------------
...nossos destinos foram traçados na maternidade... 

Quebra:
G:------------------
D:------------------
A:-------2----5-----
E:---5--------------
Repete Primeira Parte 
razao cruel desenfreada.... 
Repete Segunda Parte 
pra desculpar minhas mentiras...(en vez de do põe ci no final)

Refrao: Exagerado aos teus pés.....
G:-------------------------------------------------------------------
D:-------------------------------------------------------------------
A:-3--3--3--3--3--3--3--3--5--5--5--5--5--5--5--5--------5--5--3--3--
E:-------------------------------------------------3--3--------------

Adoro um amor inventado.
G:--------------------------------------------------------------------------
D:--------------------------------------------------------------------------
A:--------------------------5--5--5--5--5--5--5--5--3--3--3--3--3--3--3---3-
E:--0--0--0--0--0--0--0--0--------------------------------------------------

Fim de Refrão 
G:-------------------------------------------------------
D:-------------------------------------------------------
A:------2----5-------------------------------------------
E:--5----------------------------------------------------

Durante o solo (ate entra no riff 1 e no dois d novo)
G:------------------------------------------------------
D:------------------------------------------------------
A:------------------------------------------------------
E:3--3--3--3--3--3--3--3--3--3--3--3--3--3---3----------

Finaliza a canção com a Pequena Quebra: 
G:----------------------------
D:----------------------------
A:---0---2----5---------------
E:----------------3-----------

Letra:

Amor da minha vida
Daqui até a eternidade
Nossos destinos foram traçados
Na maternidade
Paixão cruel, desenfreada
Te trago mil rosas roubadas
Pra desculpar minhas mentiras
Minhas mancadas
Exagerado
Jogado aos teus pés
Eu sou mesmo exagerado
Adoro um amor inventado
Eu nunca mais vou respirar
Se você não me notar
Eu posso até morrer de fome
Se você não me amar
E por você eu largo tudo
Vou mendigar, roubar, matar
Até nas coisas mais banais
Pra mim é tudo ou nunca mais
Exagerado
Jogado aos teus pés
Eu sou mesmo exagerado
Adoro um amor inventado
E por você eu largo tudo
Carreira, dinheiro, canudo
Até nas coisas mais banais
Pra mim é tudo ou nunca mais
Exagerado
Jogado aos teus pés
Eu sou mesmo exagerado
Adoro um amor inventado
Jogado aos teus pés
Com mil rosas roubadas
Exagerado
Eu adoro um amor inventado
Jogado aos seus pés, bem melhor
Eu sou mesmo exagerado
Adoro um amor inventado.

--------------------------------------
Versão 2 
Introdução:

G|--------------------------------------------------------|
D|------------------------------5--5--5-------------------|
A|--------------------------------------5--5--3--3--3-----|
E| 3--3--3--3--3--3--3--3--3--3-----------------------3---|

G|--------------------------------------------------------|
D|--------------5--5--5--5--------------------------------|
A|-------------------------5--5--5---3--3--3--------------|
E|3--3--3--3--3------------------------------3------------|

Primeira Parte:

G|---------------------------------------------------------|
D|---------------------------------------------------------|
A|---------------------------------5--5--3----3---3---3----|
E|3--3--3--3--3--3--3--3--3--3--3-----------------------3--|
...Amor da minha vida, daqui até a eternidade... 

Segunda Parte:

G|--------------------------------------------------------|
D|--------------------------------------------------------|
A|------------------5--5--5--5--5--5---3--3--3--3--3--3---|
E|0--0--0--0--0--0----------------------------------------|
...nossos destinos foram traçados na maternidade... 
Nessa Música, uma pequena "quebra" separa as partes na música. 
Ela sempre aparece no fim das "partes inteiras".

Quebra:

G|------------------|
D|------------------|
A|----0---2----5----|
E|------------------|

Repete Primeira Parte 
...eu nunca mais vou respirar... 
Repete Segunda Parte 
...eu posso até morrer de fome... 

Refrão:

G|-------------------------------------------------------|
D|-------------------------------------------------------|
A|-2--2--2--2--2--2-2--2--2--------------5--5--5--5--5---|
E|---------------------------0--0--0--0------------------|

G|-------------------------------------------------------|
D|-------------------------------------------------------|
A|----------------------5---5---5--5----3---3---3---3----|
E|-3----3----3---3---------------------------------------|

Fim de Refrão 

G|-------------------------------------------------------|
D|-------------------------------------------------------|
A|---------------5--5--5--5---3--3--3--3-----------------|
E|0--0--0--0--5------------------------------------------|

Durante o solo 

G|-------------------------------------------------------|
D|------------------------------5--5--5------------------|
A|--------------------------------------5--5--3--3--3----|
E|3--3--3--3--3--3--3--3--3--3-------------------------3-|

Finaliza a canção com a Pequena Quebra: 

G|---------------------------|
D|---------------------------|
A|---0---2----5--------------|
E|---------------------------|

a letra ta na 1ª versão acima.
Composição de Cazuza / Ezequiel Neves / Leoni
Colaboração e revisão:
  • Élison Duarte
  • Bruno Guimaraes
73.066 exibições

0 comentários

Ver todos os comentários
00:00 / 00:00
Outros vídeos desta música
Repetir Qualidade Automático
Outros vídeos desta música
00:00 / 00:00
Automático

Cifra Club Pro

Aproveite o Cifra Club com benefícios exclusivos e sem anúncios
Cifra Club Pro
Aproveite o Cifra Club com benefícios exclusivos e sem anúncios
OK