Cifra Club

Aprenda

Exagerado

Cazuza

Tab de baixo: Versão 2
Legendas:
* - Nota dura mais
/ - Slide para cima
\ - Slide para baixo
___

0:01

Introdução (após a batida da bateria): 
				
G |-----------------------|
D |-----------------------| x 4
A |-----------------------|
E |--3333333333333333333--|

0:14

|------|
|------|
|------|
|--3\--|

0:15

G |--------------------|
D |------5*------------| x 4
A |----------5*----3*--|
E |--3-3---------------|

0:29

Amor da minha vida, daqui até a eternidade...
 
G |----------------------------------------|
D |----------------------------------------| x 2
A |------------------3\5*----3---3-3--3----|
E |--3-3-3-3-3-3-3-3--------------------3--|

0:36

...nossos destinos foram traçados na maternidade... 

G |---------------------------------------------------|
D |---------------------------------------------------|
A |------------------5-5-5-5-5-5-5-5-3-3-3-3-3-3-3-3--|
E |--0-0-0-0-0-0-0-0----------------------------------|

0:41

G |------------|
D |------------|
A |--0*--2--5--|
E |------------|

0:43

Paixão cruel, desenfreada...
 
G |-------------------------------------|
D |-------------------------------------|x 2
A |-----------------3-4-5*--3--3-3--3---|
E |--3-3-3-3-3-3-3-------------------3--|

0:50

...pra  foram traçados na maternidade... 

G |---------------------------------------------------4-----4---------|
D |-------------------------------------------------------------------|
A |------------------5-5-5-5-5-5-5-5--2-2-2-2-2-2-22---22----2-2-2-2--|
E |--0-0-0-0-0-0-0-0--------------------------------------------------|

0:57

Refrão:

...Exagerado...

G |------------------------------------------------------------------------------------|
D |------------------------------------------------------------------------------------|
A |--3-33--3-33--3-55--5-55--5-----55--5-33--3-33--3-----------55--5-55--5-33-3-33-3\--|
E |---------------------------33--3-----------------00--0-00--0------------------------|

1:09

G |------------|
D |------------|
A |--0*--2--5--|
E |------------|

1:11

Eu nunca mais vou respirar...
 
G |-----------------------------------------------|
D |-----------------------------------------------| x 2
A |------------------3-4-5-5-5-5--3-3-3-3-3-3-----|
E |--3-3-3-3-3-3-3-3---------------------------3--|

1:18

...eu posso até morrer de fome... 

G |---------------------------------------------------------------------|
D |---------------------------------------------------------------------|
A |------------------5-5-5-5-5-5-5-5--3-3-3-3-3-3-3-3-3-3-3-3-3-3-3-3\--|
E |--0-0-0-0-0-0-0-0----------------------------------------------------|

1:25 (SLAP)

...por você eu largo tudo...

G |---------------4*-----------------7*---5--|
D |------2*-----------------3*---------------|
A |----------2-2-----------------5-5---------|
E |--0-0--------------0-1-1----0-------------|

1:32 (SLAP)

...até nas coisas mais banais...

G |---------------4*------------------7*-----------|
D |------2*-----------------3*---------------------|
A |-----------2-2-----------------5-5-----2222222--|
E |--0-0----0----------0-1-1-----0-----------------|

1:41

...Exagerado...

G |------------------------------------------------------------------------------------|
D |------------------------------------------------------------------------------------|
A |--3-33--3-33--3-55--5-55--5-----55--5-33--3-33--3-----------55--5-55--5-33-3-33-3\--|
E |---------------------------33--3-----------------00--0-00--0------------------------|

1:53

G |------------|
D |------------|
A |--0*--2--5--|
E |------------|

1:55

G |-----------------------|
D |-----------------------| x 4
A |-----------------------|
E |--3333333333333333333--|

2:09

Solo

G |--------------------------|
D |--------5*----------------| x 2
A |------------3-4-5*----3*--|
E |--3-3---------------------|

2:16

G |---------------------------------------------------------------------|
D |---------------------------------------------------------------------|
A |------------------5-5-5-5-5-5-5-5--3-3-3-3-3-3-3-3-3-3-3-3-3-3-3-3\--|
E |--0-0-0-0-0-0-0-0----------------------------------------------------|

2:23 (SLAP)

...por você eu largo tudo...

G |---------------4*-----------------7*--------|
D |------2*-----------------3*-----------------|
A |----------2-2-----------------5-5-----------|
E |--0-0--------------0-1-1----0-----------0/--|

2:30 (SLAP)

...até nas coisas mais banais...

G |---------------4*------------------7*--------------|
D |------2*-----------------3*------------------------|
A |-----------2-2-----------------5-5--------2222222--|
E |--0-0----0----------0-1-1-----0--------0-----------|

2:39

...Exagerado...

G |------------------------------------------------------------------------------|
D |------------------------------------------------------------------------------|
A |--3-33--3-33--3-55--5-55--5-----55--5-33--3-33--3----------5555555-53333333\--|
E |---------------------------33--3-----------------00000000-0-------------------|

2:52

G |------------|
D |------------|
A |--0*--2--5--|
E |------------|

2:53

...jogado aos seus pés...

G |----------------------------------------------------------------------|
D |----------------------------------------------------------------------|
A |--33333333-3555555-5-----55--5-3333333--3----------5555555--53333333--|
E |--------------------33--3----------------00000000-0-------------------|

3:05

G |------------|
D |------------|
A |--0*--2--5--|
E |------------|

3:07

...jogado aos seus pés...

G |------------------------------------------------------------------------|
D |------------------------------------------------------------------------|
A |--333333333-555555-5--------555555-3333333-3----------5555555-53333333--|
E |--------------------333333-3----------------00000000-0------------------|

3:19

G |-------------|
D |-------------|
A |--000--2--5--|
E |-------------|

3:21

G |-------------------------------------------------------------------------|
D |-----------------------------------------3-5-----------------------------|
A |--333333333-555555-5--------555555-3333h5---5----------5555555-53333333\-|
E |--------------------333333-3-----------------00000000-0------------------|

3:24

G |------------|
D |------------|
A |--0*--2--5--|
E |------------|
Composição de Cazuza / Ezequiel Neves / Leoni
Colaboração e revisão:
  • Bernardo Carneiro
2.305 exibições

0 comentários

Ver todos os comentários
00:00 / 00:00
Outros vídeos desta música
Repetir Qualidade Automático
Outros vídeos desta música
00:00 / 00:00
Automático

Cifra Club Pro

Aproveite o Cifra Club com benefícios exclusivos e sem anúncios
Cifra Club Pro
Aproveite o Cifra Club com benefícios exclusivos e sem anúncios
OK