Notificações Amigos pendentes

      Cazuza

      Maior Abandonado

      305.340 exibições
      Tom: E
      (intro)
      
      E |------------------------------------------------------------------|
      B |------------------------------------------------------------------|
      G |------------------------------------------------------------------|
      D |------3--0-----0-3------3--0------0-3------3--0---0---------3--5--|
      A |--3---------3--------3---------3--------3-------3---3-3-0---1--3--|
      E |--1------------------1------------------1-------------------------|
      
      
      (solo) (Segue por toda a música sobre os acordes da introdução)
      
      E |-------------------------------------------------------|
      B |-------------------------------------------------------|
      G |-------------------------------------------------------|
      D |-------------------------------------------------------|
      A |--7-7-5---5-7---7-7-5---5-7---7-7-5---5-7--5-2-2/4-2---|
      E |--------7-------------7-------------7------------------|
      
      
      E                C#m            B                  C#m  B
      Eu tô perdido, sem pai nem mãe, bem na porta da sua ca..sa
      E                C#m                       C#m   B
      Eu tô pedindo, a tua mão, e um pouquinho do bra..ço
      A         G#m            F#m    B   A   F#m
      Migalhas dormidas do teu pão
      A          G#m         F#m
      Raspas e restos me interessam
      A           G#m        F#m       B
      Pequenas porções de ilusão
      
      (riff 1)
      
      E |------------------|
      B |--5/7-7-5-4-0-4/5-|
      G |------------------|
      D |------------------|
      A |------------------|
      E |------------------|
      
      A           G#m          F#m          C#m    B
      Mentiras sinceras me interessam, me inte..ressam...
      E               C#m        B                    C#m  B
      Eu tô pedindo, a tua mão, me leve para qualquer la..do
      E                  C#m           B        C#m  B
      Só um pouquinho de proteção ao maior abandona..do
      A          G#m        F#m    B  A  F#m
      Teu corpo com amor ou não
      
      (riff 1)
      
      E |------------------|
      B |--5/7-7-5-4-0-4/5-|
      G |------------------|
      D |------------------|
      A |------------------|
      E |------------------|
      
      A         G#m          F#m
      Raspas e restos me interessam
      A      G#m         F#m
      Me ame como a um irmão
      
      (riff 2)
      
      E |--14--12-11--|
      B |-------------|
      G |-------------|
      D |-------------|
      A |-------------|
      E |-------------|
      
      
      A           G#m          F#m             B
      Mentiras sinceras me interessam, me interessam...
      
      
      (solo) E C#m B
      E |------------------------------------------------------|
      B |--5-5-3---3-5---5-5-3---3-5---5-5-3---3-5--3----------|
      G |--------4-------------4-------------4--------4--4/6-4-|
      D |------------------------------------------------------|
      A |------------------------------------------------------|
      E |------------------------------------------------------|
      
      
      A          G#m            F#m      B  A  F#m
      Migalhas dormidas do teu pão
      A         G#m          F#m
      Raspas e restos me interessam
      A           G#m          F#m      B  A   F#m
      Pequenas porções de ilusão
      
      (riff 1)
      
      E |------------------|
      B |--5/7-7-5-4-0-4/5-|
      G |------------------|
      D |------------------|
      A |------------------|
      E |------------------|
      
      
      A           G#m          F#m             B
      Mentiras sinceras me interessam, me interessam...
      E               C#m          B              C#m  B
      Estou pedindo a tua mão me leve pra qualquer la..do
      E                C#m             B        C#m  B
      Só um pouquinho de proteção ao maior abandona..do
      
      (E C#m B) E
        Composição: CazuzaColaboração e revisão:
        • Batovs
        • WH_tecladista

        Comentários 6

        140 .
        • estersk8r estersk8r: Em 22/05/2014 20:14

          Vídeo-aulaaaaaaaaa

        • Milca Milca: Em 13/10/2013 18:25

          Vídeo Aula.. Plisssssssss

        • marciokumaira marciokumaira: Em 22/08/2013 16:30

          Rolava uma vídeo-aula, hein? ;)

        • Luan Luan: Em 30/05/2013 22:07

          ela t;a certinha, mas esse tempo dele ai ta todo errado

        • biarock15 biarock15: Em 11/02/2013 18:33

          Muito boa.

        • k2.. k2..: Em 10/07/2012 18:31

          Essa muisica e muito foda,Uma das minhas preferidas.

        140 cancelar

        conseguiu tocar?

        • •••

        covers

        Grave um vídeo tocando Maior Abandonado e mande pra gente!

        Ex.: http://www.youtube.com/watch?v=0IvSvIwGdwk
        ver covers de outras músicas »
        0:00 / 0:00

        Capítulos

          1 versão de violão dificuldade exibições contribuição e correção
          1 versão de guitarra dificuldade exibições contribuição e correção
          1 versão de cavaco dificuldade exibições contribuição e correção
          1 versão de teclado dificuldade exibições contribuição e correção
          1 versão de baixo exibições contribuição e correção
          1 versão de bateria exibições contribuição e correção
          1 versão de Guitar Proformatodownloadscontribuição
          play/pausefechar subir/descer velocidade
          6ª corda E5ª corda A4ª corda D3ª corda G2ª corda B1ª corda E
            acordes
            publicidade
            fechar
            ok