Enviar cifraEntrar

Mississipi

Celso Blues Boy

Cifra: Principal
exibições 31.037
Tom: F

Intro:    e|----------------------------|
          B|-----------------5^5-3-5----|
          G|---------0-------5^5-3-5----| (2x)
          D|-----------0----------------|
          A|-------------1--------------|
          E|-0-1-2-3-------3------------|


Gm
Houve um caso estranho
     Eb
Há muito tempo atrás
         C                Gm
Que até hoje se escuta falar

Sobre um desconhecido
       Eb
Que depois virou um mito
     C                     Gm
E sumiu prá nunca mais voltar

(Repeat intro)

   Gm
Teria feito um trato
      Eb
Numa encruzilhada
      C                         Gm
Prá tocar o blues como nunca tocou

Dizem que vendeu
     Eb
Sua alma ao diabo
         C             Gm
Que em troca lhe ofereceu

Refrão:
     Gm  Bb
Say hey, hey
    C        Eb
He wanted to be (2x)
Gm           Eb           D
The eternal king of the blues


Solo:

      e|--------------------------10-8-6-8-10-6----------|
      B|------------------------8---------------8h11p8---|
      G|----------------7-6-7-7--------------------------|
      D|---5-4-5--8-7-8----------------------------------|
      A|-5-----------------------------------------------|
      E|-------------------------------------------------|


2ª parte:
   Gm
O velho Mississipi
   Eb
Ficou desconfiado
  C              Gm
Até que se enfureceu
O meu filho preferido
          Eb
Não tem trato com o diabo
   C                       Gm
O corpo e a alma dele são meus

O diabo não gostou
           Eb
Mas como a água apaga o fogo
       C                 Gm
Teve mais é que se contentar
E no rio Mississipi
         Eb
Nosso herói vive até hoje
C                     Gm
Como o eterno rei do blues

(Repete refrão)
(Repete 2ª parte)
(Repete refrão)
  • 1
  • 2
  • 3
  • 4
  • 5
  • 6
  • 7
  • 8
  • 9
  • 10
  • 11
  • 12
    Acordes para:
      Composição: Ceso Blues Boy.Colaboração e revisão:
      • Jaumzera®
      • champgnion

      0 comentários

        mostrar mais comentários

        Conseguiu tocar?

        2tocaram0ainda não

        Grave um vídeo tocando Mississipi e mande pra gente!

        00:00 / 00:00
        outros vídeos desta música
        repetirqualidadeautomática
        • automática
        Outro vídeos desta música
          00:00 / 00:00
          automática
          • automática
          Acordes para:violão e guitarra
          dificuldadeexibiçõescontribuições
          fecharplay/pause subir/descer velocidade
            acordes
            fechar
            OK
            Feedback