Cifra Club

Leilão

César Menotti e Fabiano

Cifra: Principal
exibições 1.051.843
Tom: F#
(intro) F#

        F#
ESTOU A BEIRA DA LOUCURA
   C#
NINGUÉM MAIS ME SEGURA
   B                        F#
TÔ FORA DA SUA VIDA E EU JÁ FUI
        C#
QUERO A MINHA LIBERDADE
       A#m                D#m
POSSO ATÉ SENTIR SAUDADES
        B                       C#   ( pausa C# )
SEI QUE CUSTA DOMINAR O CORAÇÃO
                    G#m
MAS MEU AMOR NÃO DA MAIS
            B
PRA VOCÊ TANTO FAZ
                 F#
EU ME ENTREGO JÁ  FUI
                  G#m
EU QUERO A FELICIDADE
            B                  C#  ( pausa C# )
SABER NA VERDADE QUEM GOSTA DE MIM

(refrão)
                   C#
EU VOU FAZER UM LEILÃO
                          B
QUEM DA MAIS PELO MEU CORAÇÃO
                       F#
ME AJUDE VOLTAR A VIVER
                      C#
EU PREFIRO QUE SEJA VOCÊ

                   C#
EU VOU FAZER UM LEILÃO
                          B
QUEM DA MAIS PELO MEU CORAÇÃO
                     F#
ME AJUDE VOLTAR A VIVER
                    C#                B         F#
ESTOU AQUI TÃO PE- -ERTO, ME ARREMA- -ATE PRA VOCÊ

(solo base) ( F# G#m F# B C# ) ( pausa C# )

        F#
"Estou à beira da loucura..."

(na hora que pára tudo e fica só o vocal, depois volta assim, no refrão)

   "Eu vou fa zer um lei lão"
D |----------------------------
A |--1---------2------3---4----   (Esse 4 é o C# do refrão)
E |----------------------------

(no final - riff sanfona)

 (agudo)                      (grave)
E |--2-----------------------|------------------------|
B |-----4---2----------------|------------------------|
G |------------3--1--3-------|------------------------|
D |---------------------4-4--|---4-----------------4--|
A |-----------------------4--|------6--4-----------4--|
E |-----------------------2--|------------6-4-6--2-2--|
Acordes para:
    Colaboração e revisão:

    0 comentários

      mostrar mais comentários

      Conseguiu tocar?

      17tocaram1ainda não

      Grave um vídeo tocando Leilão e mande pra gente!

      00:00 / 00:00
      outros vídeos desta música
      repetirqualidadeautomática
      Outro vídeos desta música
        00:00 / 00:00
        automática
        OK