Cifra Club

Not Pretty Enough

Kasey Chambers

Cifra: Principal (violão e guitarra)
tom: Eb (forma dos acordes no tom de B) Capotraste na 4ª casa
the 4th fret though. i hope you like it!


Chorous:

am i not pretty enough?...

G#|-------------------------------------------------------------------------|
Eb|-----------3-------------3--5---------------------3----------------0---1-|
Bb|---0-----------------------------4--------0---------------------0--------|
F#|------0-----------4--0------------------------0------------2-------------|
D |-------------------------------------------------------3-----------------|
G#|-3------------2------------------------0---------------------------------|

(repeat above three times for chorous)


why do you see right through me?...

G#|------------------------------------0------------------------------------|
Eb|-----------3-----------------3------0------------------------------------|
Bb|----0-------------------------------0------------------------------------|
F#|-------0------------4--0------------2------------------------------------|
D |------------------------------------2------------------------------------|
G#|-3-------------2--------------------0------------------------------------|


(still have the capo on the 4th fret)

Verse 1:


G         D         Em         C
I live, I breathe, I let it rain on me
G        D        Em         C
I sleep, I wake, I try hard not to break
G         D        Em         C
I crave, I love, I've waited long enough
G       D         Em
I try as hard as I can


Chorous:

G         D
Am I not pretty enough
Em        C
Is my heart too broken
G      D
Do I cry too much
Em        C
Am I too outspoken
G         D
Don't I make you laugh
Em        C
Should I try it harder
G         D          Em
Why do you see right through me

Verse 2:

G         D      Em      C
I laugh, I feel, I make believe it's real
G         D       Em          C
I fall, I freeze, I pray down on my knees
G       D        Em        C
I hope, I stand,I take it like a man
G        D       Em
I try as hard as I can


Chorous:

G         D
Am I not pretty enough
Em        C
Is my heart too broken
G      D
Do I cry too much
Em        C
Am I too outspoken
G         D
Don't I make you laugh
Em        C
Should I try it harder
G         D          Em
Why do you see right through me


Outro:
G
why do you see
D
why do you see
Em                   C
why do you see right through me

(play outro three times)


then play:

G
why do you see
D
why do you see
              Em
why do you see right through me
00:00 / 00:00
Outros vídeos desta música
Repetir
Outros vídeos desta música
Composição de Kasey Chambers
659 exibições
    • ½ Tom
    • A
    • Bb
    • B
    • C
    • Db
    • D
    • Eb
    • E
    • F
    • F#
    • G
    • Ab
  • Adicionar à lista

    0 comentários

    Ver todos os comentários

    Conseguiu tocar?

    0 Tocaram 0 Ainda não

    Grave um vídeo tocando Not Pretty Enough e nos envie!

    00:00 / 00:00

    Cifra Club Pro

    Aproveite o Cifra Club com benefícios exclusivos e sem anúncios
    Cifra Club Pro
    Aproveite o Cifra Club com benefícios exclusivos e sem anúncios
    OK