Cifra Club

Querida

Chapéu de Palha

Cifra: Principal (violão e guitarra)
tom: Eb (forma dos acordes no tom de C) Capotraste na 3ª casa
[Intro] F7M  C7M

[Dedilhado]

[Primeira Parte]

E|0-0-0------------------------------------3/5\3-0-3--5-3-1--------|
B|1-1-1------1-3-3/5-5\3------0------1----------------------5-3-1-1|
G|2-2-2--2-4-------------4-4--0--2h4---4-2-------------------------|
D|3-3-3-----------------------2------------------------------------|
A|----------------------------3------------------------------------|
E|-----------------------------------------------------------------|

[Segunda Parte]

E|---------------------0-0-x-0--3p1--------------------------------|
B|-0h1~-0-0-x-0-0-x----1-1-x-1-----3p1-------0-0-x-0-x-------------|
G|----------x-0-0-x----2-2-x-2---------2-----0-0-x-0-x-------------|
D|----------x-2-2-x----3-3-x-3-----------3---2-2-x-2-x-------------|
A|----------x-3-3-x------------------------0-3-3-x-3-x-------------|
E|-----------------------------------------------------------------|
Terceira Parte
E|-0-0-x-0--3p1----------------------------------------------------|
B|-1-1-x-1-----3p1-------0-0-x-0-x---------------------------------|
G|-2-2-x-2---------2-----0-0-x-0-x---------------------------------|
D|-3-3-x-3-----------3---2-2-x-2-x---------------------------------|
A|---------------------0-3-3-x-3-x---------------------------------|
E|-----------------------------------------------------------------|

 F7M                                   C7M
Deitado no escuro com o rosto no travesseiro eu devia pensar em nada
    F7M                  C7M
Mas eu penso você, como sempre
   F7M
Eu não sei se durmo e esqueço
              C7M
Ou se fico contigo um pouco mais
             F7M
Mesmo sem te ter aqui
        G
Mesmo sabendo que nunca vou ter

[Refrão] 

     F7M                             C
Querida, eu não consigo em palavras dizer o que eu sinto por você
   Am
Mas é mais do que eu posso 
G
 Menos que eu queria
     F7M                             C
Querida, eu não consigo em palavras dizer o que eu sinto por você
   Am
Mas é mais do que eu posso 
G
 Menos que eu queria

[Segunda Parte] 

   F7M
To preso num sentimento tão bom
     C7M
E ao mesmo tempo tão ruim
F7M
Não sei se paro com você
       C7M
Como arranjo um tempo pra mim
               F7M
Cê não sabe se vai, se não vai
                    C7M
Se vai querer ou se não
                              F7M
Mas eu não posso mais ficar assim 
                            C7M
Deitado só nos cantos sem você aqui
                             F7M
É tão difícil pra mim não te ter

Te querer sem poder nem falar
      C7M
Nem amar o que eu amo em você

[Refrão] 

     F7M                             C
Querida, eu não consigo em palavras dizer o que eu sinto por você
   Am
Mas é mais do que eu posso 
G
 Menos que eu queria
     F7M                             C
Querida, eu não consigo em palavras dizer o que eu sinto por você
   Am
Mas é mais do que eu posso 
G                     F7M  C  Am  G
 Menos que eu queria

      F7M                     Am
Porque quando alguém faz falta
F7M                     C
quando alguém faz falta
F7M                    G
Quando alguém faz falta
Ah, pode ter certeza que é amor
F7M  C7M
É amor
00:00 / 00:00
Outros vídeos desta música
Repetir
Outros vídeos desta música
Composição de Helder Cruz
Colaboração e revisão:
  • Renan Aquino
  • Chapéu Palha
5.953 exibições
    • ½ Tom
    • A
    • Bb
    • B
    • C
    • Db
    • D
    • Eb
    • E
    • F
    • F#
    • G
    • Ab
  • Adicionar à lista

    0 comentários

    Ver todos os comentários

    Conseguiu tocar?

    9 Tocaram 2 Ainda não

    Grave um vídeo tocando Querida e nos envie!

    Entre para oCifra Club PRO

    Tenha acesso a benefícios exclusivos no App e no Site

    • Chega de anúncios

    • Prioridade de compra em lançamentos

    • Mais recursos no app do Afinador

    • Atendimento Prioritário

    • Descontos nos produtos Cifra Club

    • Ajude a produzir mais conteúdo

    00:00 / 00:00

    Cifra Club Pro

    Aproveite o Cifra Club com benefícios exclusivos e sem anúncios
    Cifra Club Pro
    Aproveite o Cifra Club com benefícios exclusivos e sem anúncios
    OK