Cifra Club

Suicide Jag

Chemlab

Cifra: Principal (violão e guitarra)
Selo Cifra Club: esta cifra foi revisada para atender aos critérios oficiais da nossa Equipe de Qualidade.
tom: Ebm
Intro/Chorus:
E|-----------------|
B|-----------------|
G|-----------------|
D|-8-8-11--6---9---|
A|-8-8-11--6---9---|
E|-6-6-9---4---7---|

Verse
E|---------------------------------|
B|---------------------------------|
G|---------------------------------|
D|-3-------6-------8-------3-------|
A|-3-------6-------8-------3-------|
E|-1-------4-------6-------1-------|

Breakdown beat at 2:40
E|----------------------------------|
B|----------------------------------|
G|----------------------------------|
D|----------------------------------|
A|----------------------------------|
E|-1-xxxxxx-2-1---1-1xxxxxx-4-1-----|
Outros vídeos desta música
    6 exibições
      • ½ Tom
      • Am
      • Bbm
      • Bm
      • Cm
      • C#m
      • Dm
      • Ebm
      • Em
      • Fm
      • F#m
      • Gm
      • G#m
    • Adicionar à lista

    Afinação da cifra

    Afinador online

      0 comentários

      Ver todos os comentários

      Entre para o Cifra Club PRO

      Tenha acesso a benefícios exclusivos no App e no Site

      • Chega de anúncios

      • Mais recursos no app do Afinador

      • Atendimento Prioritário

      • Aumente seu limite de lista

      • Ajude a produzir mais conteúdo

      Cifra Club Pro

      Aproveite o Cifra Club com benefícios exclusivos e sem anúncios
      Cifra Club Pro
      Aproveite o Cifra Club com benefícios exclusivos e sem anúncios
      OK