Cifra Club

Sonífera Ilha

Chiclete Com Banana

Cifra: Principal
exibições 40.683
Tom: C
Intr.: Am  

INTRO:
e|---------13-12---12-13-----------12-11---11-------12--------14--12--10-----
B|----------------------12-13----------------12-9-----13-10---14--12--10--10-
G|---9-10--------------------13-14---------------------------------------9---
D|---------------------------------------------------------------------------
A|---------------------------------------------------------------------------
E|---------------------------------------------------------------------------

Solo 2 (Am) No Baixo é tocado diferente, mas no violão fica melhor assim
e|--------------------------------------
B|--------------------------------------
G|--------------------------------------
D|----3-2---3-2-0------3-2---3-2-0------  ---  Várias Vezes
A|--0-----0-------3-0------0-------3-0--
E|--------------------------------------

          Am 
Não posso mais viver assim do seu ladinho 
         Dm                               Am 
Por isso colo meu ouvido no radinho de pilha 
          G         F           E 
Pra te sintonizar sozinha, numa ilha 

REFRÃO
          Am 
Sonífera ilha 
                Dm 
Descansa meus olhos 
               E 
Sossega minha boca 
             Am 
Me enche de luz 
          Am 
Sonífera ilha 
               Dm 
Descansa meus olhos 
               E 
Sossega minha boca 
            Am 
Me enche de luz 
  
Solo 2 (Am) Solo do Baixo 

          Am 
Não posso mais viver assim do seu ladinho 
         Dm                              Am 
Por isso colo meu ouvido no radinho de pilha 
          G         F            E 
Pra te sintonizar sozinha, numa ilha

 
           Am 
Sonífera ilha 
               Dm 
Descansa meus olhos 
               E 
Sossega minha boca 
            A   A7 
Me enche de luz 
           Dm   
Sonífera ilha 
G7          C       F 
   Descansa meus olhos 
              E 
Sossega minha boca 
             Am 
Me enche de luz 
          Am 
Sonífera ilha 
                Dm 
Descansa meus olhos 
               E 
Sossega minha boca 
            A   A7 
Me enche de luz 
         Dm 
Sonífera ilha 
 G7          C       F
    Descansa meus olhos 
              E  --- (Prolongue o "Mi")
Sossega minha boca

Solo 2 (Am) Solo do Baixo

Enviado por IgOr AnAcLeTo | igoredhot_7@hotmail.com
Acordes para:
    Colaboração e revisão:
    • Igor Anacleto

    0 comentários

      mostrar mais comentários

      Conseguiu tocar?

      2tocaram0ainda não

      Grave um vídeo tocando Sonífera Ilha e mande pra gente!

      00:00 / 00:00
      outros vídeos desta música
      repetirqualidadeautomática
      Outro vídeos desta música
        00:00 / 00:00
        automática
        OK