Cifra Club

A Banda

Chico Buarque

Cifra: Principal (violão e guitarra)
Selo Cifra Club: esta cifra foi revisada para atender aos critérios oficiais da nossa Equipe de Qualidade.
tom: D
[Intro] D6(9)

[Tab - Intro]

   D6(9)
E|------------------------------------------|
B|-5-5---5---5---5---5-5---5---5---5--5-----|
G|-4-4---4---4---4---4-4---4---4---4--4-----|
D|-4-4---4---4---4---4-4---4---4---4--4-----|
A|-5-------5---------5-------5--------5-----|
E|-----5-------5---------5-------5----------|

[Refrão]

[Tab - Refrão]

Parte 1 de 3
   A7                 F#m7          B7
E|------------------9--9----9---------------|
B|-5-5---5---5---5--10-10---10----7---7-----|
G|-6-6---6---6---6--9--9----9-----8---8-----|
D|-5-5---5---5---5----------------7---7-----|
A|-----7-------7----9---------------9-------|
E|-5-------5--------------9-----7-----------|

Parte 2 de 3
   E7(9)    A7        D6(9)    
E|------------------------------------------|
B|-7-7---7----5---5---5-5---5---5--5--------|
G|-7-7---7----6---6---4-4---4---4--4--------|
D|-6-6---6----5---5---4-4---4---4--4--------|
A|-7------------7-----5-------5-------------|
E|-----7----5-------------5-------5---------|

Parte 3 de 3
   E7(9)    A7          D6(9)    
E|------------------------------------------|
B|-7-7---7----5---5---5-5-5-5-5-5-5-5-------|
G|-7-7---7----6---6---4-4-4-4-4-4-4-4-------|
D|-6-6---6----5---5---4-4-4-4-4-4-4-4-------|
A|-7------------7-----5-5-5-5-5-5-5-5-------|
E|-----7----5-------------------------------|

D6(9)                  A7                
      Estava à toa na vida 
                  F#m7
O meu amor me chamou
           B7      E7(9) 
Pra ver a banda passar 
          A7
Cantando coisas de amor
D6(9)                   A7            
      A minha gente sofrida 
                F#m7
Despediu-se da dor
           B7       E7(9)   
Pra ver a banda passar 
          A7         D6(9)
Cantando coisas de amor

[Primeira Parte]

[Tab - Primeira Parte]

Parte 1 de 4
   D7M                A7                Am7
E|------------------------------------------|
B|-7-7---7---7---7--5-5---5---5---5-5-5---5-|
G|-6-6---6---6---6--6-6---6---6---6-5-5---5-|
D|-7-7---7---7---7--5-5---5---5---5-5-5---5-|
A|-5-------5--------------------------------|
E|-----5-------5----5---0---5---0---5---0---|

Parte 2 de 4
   D7(9)     G7M                F#7
E|------------------------------------------|
B|---5---5--3-3---3---3---3--2-2---2---2---2|
G|---5---5--4-4---4---4---4--3-3---3---3---3|
D|---4---4--4-4---4---4---4--2-2---2---2---2|
A|-5------------5-------5--------4-------4--|
E|-----5----3-------3--------2-------2------|

Parte 3 de 4
   B7(9)              E7(9)
E|------------------------------------------|
B|-2-2---2---2---2--7-7---7---7---7---------|
G|-2-2---2---2---2--7-7---7---7---7---------|
D|-1-1---1---1---1--6-6---6---6---6---------|
A|-2-------2--------7-------7---------------|
E|-----2-------2--------7-------7-----------|

Parte 4 de 4
   A7
E|------------------------------------------|
B|-5-5-5-5-5-5-5-5--------------------------|
G|-6-6-6-6-6-6-6-6--------------------------|
D|-5-5-5-5-5-5-5-5--------------------------|
A|-----7-------7----------------------------|
E|-5-------5--------------------------------|

         D7M         
O homem sério 
                A7
Que contava dinheiro parou
       Am7          D7(9)   G7M
O faroleiro que contava vantagem parou
       F#7          
A namorada que contava 
       B7(9)         
As estrelas  parou
      E7(9)               A7
Para ver, ouvir e dar passagem

[Segunda Parte]

[Tab - Segunda Parte]

Parte 1 de 3
   D7M                A7                 Am/C
E|------------------------------------------|
B|-7-7---7---7---7--5-5---5---5---5--1-1---1|
G|-6-6---6---6---6--6-6---6---6---6--2-2---2|
D|-7-7---7---7---7--5-5---5---5---5--2-2---2|
A|-5-------5-------------------------3------|
E|-----5-------5----5---0---5---0--------3--|

Parte 2 de 3
   B7        G7M                F#7
E|------------------------------------------|
B|---0---0--3-3---3---3---3--2-2---2---2---2|
G|---2---2--4-4---4---4---4--3-3---3---3---3|
D|---1---1--4-4---4---4---4--2-2---2---2---2|
A|-2------------5-------5--------4-------4--|
E|-----2----3-------3--------2-------2------|

Parte 3 de 3
   B7(9) B7  E7(9)     A7
E|------------------------------------------|
B|-2-----0---7-7---7----5-------------------|
G|-2-----2---7-7---7----6-------------------|
D|-1-----1---6-6---6----5-------------------|
A|-2-----2---7------------------------------|
E|---------------7----5---0-----------------|

         D7M               A7
A moça triste que vivia calada sorriu
         Am/C        B7         
A rosa triste que vivia 
    G7M 
Fechada se abriu
         F#7              B7(9)           
E a meninada toda se assanhou
           B7       E7(9)        
Pra ver a banda passar 
          A7         
Cantando coisas de amor

[Refrão]

D7M                  A7                
    Estava à toa na vida 
                  F#m7
O meu amor me chamou
           B7      E7(9) 
Pra ver a banda passar 
          A7
Cantando coisas de amor
D6(9)                   A7            
      A minha gente sofrida 
                F#m7
Despediu-se da dor
           B7       E7(9)   
Pra ver a banda passar 
          A7         D6(9)
Cantando coisas de amor

[Terceira Parte]

          D7M            
O velho fraco 
                   A7
Se esqueceu do cansaço e pensou
               Am7               
Que ainda era moço 
      D7(9)     G7M 
Pra sair no terraço e dançou
        F#7                B7(9)     
A moça feia debruçou na janela
                E7(9)           A7  
Pensando que a banda tocava pra ela

[Quarta Parte]

[Tab - Quarta Parte]

Parte 1 de 3
   D7M                A7                 Am/C
E|------------------------------------------|
B|-7-7---7---7---7--5-5---5---5---5--1-1---1|
G|-6-6---6---6---6--6-6---6---6---6--2-2---2|
D|-7-7---7---7---7--5-5---5---5---5--2-2---2|
A|-5-------5-------------------------3------|
E|-----5-------5----5---0---5---0--------3--|

Parte 2 de 3
   B7        G7M                F#7
E|------------------------------------------|
B|---0---0--3-3---3---3---3--2-2---2---2---2|
G|---2---2--4-4---4---4---4--3-3---3---3---3|
D|---1---1--4-4---4---4---4--2-2---2---2---2|
A|-2------------5-------5--------4-------4--|
E|-----2----3-------3--------2-------2------|

Parte 3 de 3
   B7(9) B7  E7(9)     A7       D7M
E|------------------------------------------|
B|-2----0---7-7---7----5---5-7-7---7---7---7|
G|-2----2---7-7---7----6---6-6-6---6---6---6|
D|-1----1---6-6---6----5---5-7-7---7---7---7|
A|-2----2---7----------------5-------5------|
E|--------------7----5---0-------5-------5--|

           D7M             
A marcha alegre se espalhou 
       A7
Na avenida e insistiu
        Am/C      B7        G7M
A lua cheia que vivia escondida surgiu
         F#7               B7(9)
Minha cidade toda se enfeitou
           B7       E7(9)        
Pra ver a banda passar 
          A7         D7M
Cantando coisas de amor

[Quinta Parte]

[Tab - Quinta Parte]

Parte 1 de 3
   A7                 F#m7          B7
E|------------------9--9----9---------------|
B|-5-5---5---5---5--10-10---10----7---7-----|
G|-6-6---6---6---6--9--9----9-----8---8-----|
D|-5-5---5---5---5----------------7---7-----|
A|-----7-------7----9---------------9-------|
E|-5-------5--------------9-----7-----------|

Parte 2 de 3
   E7(9)    A7          D6(9)    
E|------------------------------------------|
B|-7-7---7----5---5---5-5---5---5--5--------|
G|-7-7---7----6---6---4-4---4---4--4--------|
D|-6-6---6----5---5---4-4---4---4--4--------|
A|-7------------7-----5-------5-------------|
E|-----7----5-------------5-------5---------|

Parte 3 de 3
   E7(9)    A7         
E|------------------------------------------|
B|-7-7---7----5---5-------------------------|
G|-7-7---7----6---6-------------------------|
D|-6-6---6----5---5-------------------------|
A|-7------------7---------------------------|
E|-----7----5-------------------------------|

                   A7                      
Mas para meu desencanto 
                   F#m7
O que era doce acabou
        B7        E7(9)     
Tudo tomou seu lugar 
              A7       D6(9) 
Depois que a banda passou
                    A7      
E cada qual no seu canto 
                   F#m7
Em cada canto uma dor
           B7       E7(9)     
Depois da banda passar 
          A7         D7M
Cantando coisas de amor

[Sexta Parte]

[Tab - Sexta Parte]

   D7M      B7       E7       A7
E|------------------------------------------|
B|-7-7-7-7--7-7-7-7--9-9-9-9--8-8-8-8-------|
G|-6-6-6-6--8-8-8-8--7-7-7-7--6-6-6-6-------|
D|-7-7-7-7--7-7-7-7--9-9-9-9--5-5-5-5-------|
A|-5---5-------------7---7------------------|
E|----------7---7-------------5---5---------|

            B7       E7     
 Depois da banda passar 
          A7         D7M
Cantando coisas de amor
           B7       E7     
Depois da banda passar 
          A7         D7M
Cantando coisas de amor
Outros vídeos desta música
801.446 exibições
  • Simplificar cifra
    • ½ Tom
    • A
    • Bb
    • B
    • C
    • Db
    • D
    • Eb
    • E
    • F
    • F#
    • G
    • Ab
  • Adicionar à lista

Afinação da cifra

Afinador online

    0 comentários

    Ver todos os comentários

    Entre para o Cifra Club PRO

    Tenha acesso a benefícios exclusivos no App e no Site

    • Chega de anúncios

    • Mais recursos no app do Afinador

    • Atendimento Prioritário

    • Aumente seu limite de lista

    • Ajude a produzir mais conteúdo

    Capítulos
    • Apresentação
    • Tocando a Música
    • Acorde Introdução
    • Ensinando Introdução
    • Acordes Refrão
    • Tocando Refrão
    • Ensinando Refrão
    • Acordes Primeira Parte
    • Tocando Primeira Parte
    • Ensinando Primeira Parte
    • Ensinando Segunda Parte
    • Tocando Terceira e Quarta Parte
    • Acordes Sexta Parte
    • Ensinando Quinta Parte
    • Ensinando Sexta Parte
    • Encerramento

    Cifra Club Pro

    Aproveite o Cifra Club com benefícios exclusivos e sem anúncios
    Cifra Club Pro
    Aproveite o Cifra Club com benefícios exclusivos e sem anúncios
    OK