Cifra Club

A Banda

Chico Buarque

Cifra: Simplificada (violão e guitarra)
tom: D
[Intro] D

[Tab - Intro]

   D
E|-2-2---2---2---2-2-2---2---2---2----------|
B|-3-3---3---3---3-3-3---3---3---3----------|
G|-2-2---2---2---2-2-2---2---2---2----------|
D|-0---0---0---0---0---0---0---0------------|
A|------------------------------------------|
E|------------------------------------------|

[Refrão]

[Tab - Refrão]

Parte 1 de 2
   D   A7               F#m7     B7
E|-2----------------------------------------|
B|-3---2-2---2---2---2--2-2---2----0---0----|
G|-2---0-0---0---0---0--2-2---2----2---2----|
D|-0---2-2---2---2---2--2-2---2----1---1----|
A|-----0---0---0---0-------------2---2------|
E|----------------------2---2---------------|

Parte 1 de 2 - variação
   A7               F#m7     B7
E|-----------------------------------------|
B|-2-2---2---2---2--2-2---2----0---0-------|
G|-0-0---0---0---0--2-2---2----2---2-------|
D|-2-2---2---2---2--2-2---2----1---1-------|
A|-0---0---0---0-------------2---2---------|
E|------------------2---2------------------|

Parte 2 de 2
   E7      A7        D  
E|-------------------2-2---2---2---2--------|
B|-0-0---0----2---2--3-3---3---3---3--------|
G|-1-1---1----0---0--2-2---2---2---2--------|
D|-0-0---0----2---2--0---0---0---0----------|
A|----------0---0---------------------------|
E|-0---0------------------------------------|

                 A7                
Estava à toa na vida 
                  F#m7
O meu amor me chamou
           B7       E7 
Pra ver a banda passar 
          A7
Cantando coisas de amor
D                   A7            
  A minha gente sofrida 
                F#m7
Despediu-se da dor
           B7       E7  
Pra ver a banda passar 
          A7         D
Cantando coisas de amor

[Primeira Parte]

[Tab - Primeira Parte]

Parte 1 de 5
  D                 A7
E|-2-2---2---2---2--------------------------|
B|-3-3---3---3---3--2-2---2---2---2---------|
G|-2-2---2---2---2--0-0---0---0---0---------|
D|-0---0---0---0----2-2---2---2---2---------|
A|------------------0---0---0---0-----------|
E|------------------------------------------|

Parte 2 de 5
   Am7              G
E|------------------------------------------|
B|-1-1---1---1---1--0-0---0---0---0---------|
G|-0-0---0---0---0--0-0---0---0---0---------|
D|-2-2---2---2---2--0-0---0---0---0---------|
A|-0---0---0---0----------------------------|
E|------------------3---3---3---3-----------|

Parte 3 de 5
   F#7              B7
E|------------------------------------------|
B|------------------0-0---0---0---0---------|
G|-3-3---3---3---3--2-2---2---2---2---------|
D|-2-2---2---2---2--1-1---1---1---1---------|
A|------------------2---2---2---2-----------|
E|-2---2---2---2----------------------------|

Parte 4 de 5
   E7               A7
E|------------------------------------------|
B|-0-0---0---0---0--2-2---2---2---2---------|
G|-1-1---1---1---1--0-0---0---0---0---------|
D|-0-0---0---0---0--2-2---2---2---2---------|
A|------------------0---0---0---0-----------|
E|-0---0---0---0----------------------------|

Parte 5 de 5
   F#7              B7    E7       A7
E|------------------------------------------|
B|------------------0-----0-0---0----2---2--|
G|-3-3---3---3---3--2-----1-1---1----0---0--|
D|-2-2---2---2---2--1-----0-0---0----2---2--|
A|------------------2--------------0---0----|
E|-2---2---2---2----------0---0-------------|
      
O homem sério 
                A7
Que contava dinheiro parou
       Am7                  G
O faroleiro que contava vantagem parou
       F#7          
A namorada que contava 
       B7        
As estrelas parou
      E7                  A7
Para ver, ouvir e dar passagem

         D                 A7
A moça triste que vivia calada sorriu
         Am7                 
A rosa triste que vivia 
    G
Fechada se abriu
         F#7              B7          
E a meninada toda se assanhou
                    E7     
Pra ver a banda passar 
          A7         
Cantando coisas de amor

[Refrão]

D                  A7                
  Estava à toa na vida 
                  F#m7
O meu amor me chamou
           B7       E7 
Pra ver a banda passar 
          A7
Cantando coisas de amor
D                   A7            
  A minha gente sofrida 
                F#m7
Despediu-se da dor
           B7       E7  
Pra ver a banda passar 
          A7         D
Cantando coisas de amor

[Segunda Parte]
                 
O velho fraco 
                   A7
Se esqueceu do cansaço e pensou
               Am7               
Que ainda era moço 
                G
Pra sair no terraço e dançou
        F#7                B7     
A moça feia debruçou na janela
                E7              A7  
Pensando que a banda tocava pra ela

           D           
A marcha alegre se espalhou 
       A7
Na avenida e insistiu
        Am7                 G
A lua cheia que vivia escondida surgiu
         F#7               B7
Minha cidade toda se enfeitou
                    E7        
Pra ver a banda passar 
          A7         
Cantando coisas de amor

[Terceira Parte]

[Tab - Terceira Parte]

Parte 1 de 2
   D                A7               
E|-2-2---2---2---2--------------------------|
B|-3-3---3---3---3--2-2---2---2---2---------|
G|-2-2---2---2---2--0-0---0---0---0---------|
D|-0---0---0---0----2-2---2---2---2---------|
A|------------------0---0---0---0-----------|
E|------------------------------------------|

Parte 2 de 2
   F#m7     B7        E7      A7
E|------------------------------------------|
B|--2-2---2----0---0--0-0---0----2---2------|
G|--2-2---2----2---2--1-1---1----0---0------|
D|--2-2---2----1---1--0-0---0----2---2------|
A|-----------2---2-------------0---0--------|
E|--2---2-------------0---0-----------------|

D                    A7                                 
  Mas para meu desencanto 
                   F#m7
O que era doce acabou
        B7        E7     
Tudo tomou seu lugar 
              A7       D
Depois que a banda passou
                    A7      
E cada qual no seu canto 
                   F#m7
Em cada canto uma dor
           B7       E7     
Depois da banda passar 
          A7           
Cantando coisas de amor

[Quarta Parte]

[Tab - Quarta Parte]

   D        B7      E7        A7
E|-2-2---2----------------------------------|
B|-3-3---3----0---0--0-0---0----2---2-------|
G|-2-2---2----2---2--1-1---1----0---0-------|
D|-0---0------1---1--0-0---0----2---2-------|
A|----------2---2-------------0---0---------|
E|-------------------0---0------------------|

D            B7       E7     
  Depois da banda passar 
          A7         D
Cantando coisas de amor
           B7       E7     
Depois da banda passar 
          A7         D
Cantando coisas de amor

           B7       E7     
Depois da banda passar 
          A7         D
Cantando coisas de amor
           B7       E7     
Depois da banda passar 
          A7         D
Cantando coisas de amor

           B7       E7     
Depois da banda passar 
          A7         D
Cantando coisas de amor
           B7       E7     
Depois da banda passar 
          A7         D
Cantando coisas de amor

           B7       E7     
Depois da banda passar 
          A7         D
Cantando coisas de amor

00:00 / 00:00
Outros vídeos desta música
Repetir
Outros vídeos desta música
Composição de Chico Buarque
Colaboração e revisão:
  • Gustavo Vaz
  • Thiago Alcântara
  • Maria Gonçalves
90.666 exibições
    • ½ Tom
    • A
    • Bb
    • B
    • C
    • Db
    • D
    • Eb
    • E
    • F
    • F#
    • G
    • Ab
  • Adicionar à lista

    0 comentários

    Ver todos os comentários

    Entre para oCifra Club PRO

    Tenha acesso a benefícios exclusivos no App e no Site

    • Chega de anúncios

    • Prioridade de compra em lançamentos

    • Mais recursos no app do Afinador

    • Atendimento Prioritário

    • Descontos nos produtos Cifra Club

    • Ajude a produzir mais conteúdo

    00:00 / 00:00
    Capítulos
    • Tocando a Música
    • Acordes Introdução e Refrão
    • Tocando Introdução
    • Ensinando Introdução
    • Ensinando Refrão
    • Acordes Partes da Música
    • Tocando Primeira Parte
    • Ensinando Primeira Parte
    • Tocando Terceira Parte
    • Ensinando Terceira Parte
    • Ensinando Quarta Parte
    • Encerramento

    Cifra Club Pro

    Aproveite o Cifra Club com benefícios exclusivos e sem anúncios
    Cifra Club Pro
    Aproveite o Cifra Club com benefícios exclusivos e sem anúncios
    OK