Cifra Club

A Rita

Chico Buarque

Cifra: Principal (violão e guitarra)
exibições 259.602
Tom: D
Intro: A7M (3x)
       G7  F#7
  A7M
E|-----------------------------------------
B|2-----2---2-----2------------------------
G|1-----1---1-----1------------------------  (3x)
D|2-----2---2-----2------------------------
A|---0---------0---------------------------
E|-----------------------------------------

  G7        F#7
E|-----------------------------------------
B|3-----3---2-----2------------------------
G|4-----4---3-----3------------------------
D|3-----3---2-----2------------------------
A|-----------------------------------------
E|---3---------2---------------------------


Primeira Estrofe:
           Bm7           E7(9)
A Rita levou meu sorriso
            A7M
No sorriso dela
            A6
Meu assunto
                Em7
Levou junto com ela
                 A7(9)
O que me é de direito
                  D7M(9)
E Arrancou-me do peito
           D6(9)
E tem mais
  Bm7                 E7
E|-----------------------------------------
B|7-----7---7-----7---7------7---7-----7---
G|7-----7---7-----7---7------7---7-----7---
D|7-----7---7-----7---6------6---6-----6---
A|------------------------7---------7------
E|---7---------7---------------------------

  A7M                 A6
E|-----------------------------------------
B|5-----5---5-----5---5-----5---5-----5----
G|6-----6---6-----6---6-----6---6-----6----
D|6-----6---6-----6---4-----4---4-----4----
A|-----------------------------------------
E|---5---------5---------5---------5-------

  Em7                 A7(9)
E|-----------------------------------------
B|12----12--12----12--12----12--12-----12--
G|12----12--12----12--12----12--12-----12--
D|12----12--12----12--11----11--11-----11--
A|-----------------------12---------12-----
E|---12--------12--------------------------

  D7M(9)              D6(9)
E|-----------------------------------------
B|5-----5---5-----5---5-----5---5-----5----
G|6-----6---6-----6---4-----4---4-----4----
D|4-----4---4-----4---4-----4---4-----4----
A|---5---------5---------5---------5-------
E|-----------------------------------------


Segunda Estrofe:
              Dm7                       G7(9)
Levou seu retrato, seu trapo, seu prato
       C#m7  F#7(9)
Que papel!
                       B7(13)
Uma imagem de são Francisco
      B7(13-)       Bm7  A#º
E um bom disco de Noel
  Dm7                 G7(9)
E|-----------------------------------------
B|10----10--10----10--10----10--10----10---
G|10----10--10----10--10----10--10----10---
D|10----10--10----10--9-----9---9-----9----
A|-----------------------10--------10------
E|---10--------10--------------------------

  C#m7                F#7(9)
E|-----------------------------------------
B|9-----9---9-----9---9-----9---9-----9----
G|9-----9---9-----9---9-----9---9-----9----
D|9-----9---9-----9---8-----8---8-----8----
A|-----------------------9---------9-------
E|---9---------9---------------------------

  B7(13)              B7(13-)
E|-----------------------------------------
B|9-----9---9-----9---8-----8---8-----8----
G|8-----8---8-----8---8-----8---8-----8----
D|7-----7---7-----7---7-----7---7-----7----
A|-----------------------------------------
E|---7---------7---------7---------7-------

  Bm7                 A#º
E|-----------------------------------------
B|7-----7---7-----7---5--------------------
G|7-----7---7-----7---6--------------------
D|7-----7---7-----7---5--------------------
A|-----------------------------------------
E|---7---------7------6--------------------


Terceira Estrofe:
          Bm7
A Rita matou nosso amor
       E7(9)
De vingança
       A7M         A6
Nem herança deixou
                 Em7
Não levou um tostão
                  A7(9)
Porque não tinha não
                     D7M(9)  D6(9)
Mas causou perdas e danos
  Bm7                 E7
E|-----------------------------------------
B|7-----7---7-----7---7------7---7-----7---
G|7-----7---7-----7---7------7---7-----7---
D|7-----7---7-----7---6------6---6-----6---
A|------------------------7---------7------
E|---7---------7---------------------------

  A7M                 A6
E|-----------------------------------------
B|5-----5---5-----5---5-----5---5-----5----
G|6-----6---6-----6---6-----6---6-----6----
D|6-----6---6-----6---4-----4---4-----4----
A|-----------------------------------------
E|---5---------5---------5---------5-------

  Em7                 A7(9)
E|-----------------------------------------
B|12----12--12----12--12----12--12-----12--
G|12----12--12----12--12----12--12-----12--
D|12----12--12----12--11----11--11-----11--
A|-----------------------12---------12-----
E|---12--------12--------------------------

  D7M(9)              D6(9)
E|-----------------------------------------
B|5-----5---5-----5---5-----5---5-----5----
G|6-----6---6-----6---4-----4---4-----4----
D|4-----4---4-----4---4-----4---4-----4----
A|---5---------5---------5---------5-------
E|-----------------------------------------


Quarta Estrofe:
                Dm7
Levou os meus planos
               G7(9)/D
Meus pobres enganos
              G7(11+)
Os meus vinte anos
           F#7
O meu coração
           B7(9)
E além de tudo
           E7
Me deixou mudo
       A7M  A#º
Um violão
  Dm7                 G7(9)/D
E|-----------------------------------------
B|10----10--10----10--10----10--10----10---
G|10----10--10----10--10----10--10----10---
D|10----10--10----10--9-----9---9-----9----
A|-----------------------------------------
E|---10--------10--------10--------10------

  G7(11+)             F#7
E|-----------------------------------------
B|2-----2---2-----2---2-----2---2-----2----
G|4-----4---4-----4---3-----3---3-----3----
D|3-----3---3-----3---2-----2---2-----2----
A|-----------------------------------------
E|---3---------3---------2---------2-------

  B7(13)              E7
E|-----------------------------------------
B|2-----2---2-----2---0-----0---0-----0----
G|2-----2---2-----2---1-----1---1-----1----
D|1-----1---1-----1---0-----0---0-----0----
A|---2---------2---------------------------
E|-----------------------0---------0-------

  A7M                 A#º
E|-----------------------------------------
B|2-----2---2-----2---5--------------------
G|1-----1---1-----1---6--------------------
D|2-----2---2-----2---5--------------------
A|---0---------0---------------------------
E|--------------------6--------------------


Primeira Estrofe:
           Bm7           E7(9)
A Rita levou meu sorriso
            A7M
No sorriso dela
            A6
Meu assunto
                Em7
Levou junto com ela
                 A7(9)
O que me é de direito
                  D7M(9)
E Arrancou-me do peito
           D6(9)
E tem mais
  Bm7                 E7
E|-----------------------------------------
B|7-----7---7-----7---7------7---7-----7---
G|7-----7---7-----7---7------7---7-----7---
D|7-----7---7-----7---6------6---6-----6---
A|------------------------7---------7------
E|---7---------7---------------------------

  A7M                 A6
E|-----------------------------------------
B|5-----5---5-----5---5-----5---5-----5----
G|6-----6---6-----6---6-----6---6-----6----
D|6-----6---6-----6---4-----4---4-----4----
A|-----------------------------------------
E|---5---------5---------5---------5-------

  Em7                 A7(9)
E|-----------------------------------------
B|12----12--12----12--12----12--12-----12--
G|12----12--12----12--12----12--12-----12--
D|12----12--12----12--11----11--11-----11--
A|-----------------------12---------12-----
E|---12--------12--------------------------

  D7M(9)              D6(9)
E|-----------------------------------------
B|5-----5---5-----5---5-----5---5-----5----
G|6-----6---6-----6---4-----4---4-----4----
D|4-----4---4-----4---4-----4---4-----4----
A|---5---------5---------5---------5-------
E|-----------------------------------------


Segunda Estrofe:
              Dm7                       G7(9)
Levou seu retrato, seu trapo, seu prato
       C#m7  F#7(9)
Que papel!
                       B7(13)
Uma imagem de são Francisco
      B7(13-)       Bm7  A#º
E um bom disco de Noel
  Dm7                 G7(9)
E|-----------------------------------------
B|10----10--10----10--10----10--10----10---
G|10----10--10----10--10----10--10----10---
D|10----10--10----10--9-----9---9-----9----
A|-----------------------10--------10------
E|---10--------10--------------------------

  C#m7                F#7(9)
E|-----------------------------------------
B|9-----9---9-----9---9-----9---9-----9----
G|9-----9---9-----9---9-----9---9-----9----
D|9-----9---9-----9---8-----8---8-----8----
A|-----------------------9---------9-------
E|---9---------9---------------------------

  B7(13)              B7(13-)
E|-----------------------------------------
B|9-----9---9-----9---8-----8---8-----8----
G|8-----8---8-----8---8-----8---8-----8----
D|7-----7---7-----7---7-----7---7-----7----
A|-----------------------------------------
E|---7---------7---------7---------7-------

  Bm7                 A#º
E|-----------------------------------------
B|7-----7---7-----7---5--------------------
G|7-----7---7-----7---6--------------------
D|7-----7---7-----7---5--------------------
A|-----------------------------------------
E|---7---------7------6--------------------


Terceira Estrofe:
          Bm7
A Rita matou nosso amor
       E7(9)
De vingança
       A7M         A6
Nem herança deixou
                 Em7
Não levou um tostão
                  A7(9)
Porque não tinha não
                     D7M(9)  D6(9)
Mas causou perdas e danos
  Bm7                 E7
E|-----------------------------------------
B|7-----7---7-----7---7------7---7-----7---
G|7-----7---7-----7---7------7---7-----7---
D|7-----7---7-----7---6------6---6-----6---
A|------------------------7---------7------
E|---7---------7---------------------------

  A7M                 A6
E|-----------------------------------------
B|5-----5---5-----5---5-----5---5-----5----
G|6-----6---6-----6---6-----6---6-----6----
D|6-----6---6-----6---4-----4---4-----4----
A|-----------------------------------------
E|---5---------5---------5---------5-------

  Em7                 A7(9)
E|-----------------------------------------
B|12----12--12----12--12----12--12-----12--
G|12----12--12----12--12----12--12-----12--
D|12----12--12----12--11----11--11-----11--
A|-----------------------12---------12-----
E|---12--------12--------------------------

  D7M(9)              D6(9)
E|-----------------------------------------
B|5-----5---5-----5---5-----5---5-----5----
G|6-----6---6-----6---4-----4---4-----4----
D|4-----4---4-----4---4-----4---4-----4----
A|---5---------5---------5---------5-------
E|-----------------------------------------


Quarta Estrofe:
                Dm7
Levou os meus planos
               G7(9)/D
Meus pobres enganos
              G7(11+)
Os meus vinte anos
           F#7
O meu coração
           B7(9)
E além de tudo
           E7
Me deixou mudo
       A7M  F#7(13-)  F#7
Um violão
           B7(9)
E além de tudo
           E7
Me deixou mudo
       A7M  F#7(13-)  F#7
Um violão
           B7(9)
E além de tudo
           E7
Me deixou mudo
       BbM7/F  A7M
Um violão
  Dm7                 G7(9)/D
E|-----------------------------------------
B|10----10--10----10--10----10--10----10---
G|10----10--10----10--10----10--10----10---
D|10----10--10----10--9-----9---9-----9----
A|-----------------------------------------
E|---10--------10--------10--------10------

  G7(11+)             F#7
E|-----------------------------------------
B|2-----2---2-----2---2-----2---2-----2----
G|4-----4---4-----4---3-----3---3-----3----
D|3-----3---3-----3---2-----2---2-----2----
A|-----------------------------------------
E|---3---------3---------2---------2-------

  B7(13)              E7
E|-----------------------------------------
B|2-----2---2-----2---0-----0---0-----0----
G|2-----2---2-----2---1-----1---1-----1----
D|1-----1---1-----1---0-----0---0-----0----
A|---2---------2---------------------------
E|-----------------------0---------0-------

  A7M                 F#7(13-)  F#7
E|-----------------------------------------
B|2-----2---2-----2---3-----3---2-----2----
G|1-----1---1-----1---3-----3---3-----3----
D|2-----2---2-----2---2-----2---2-----2----
A|---0---------0---------------------------
E|-----------------------2---------2-------

  B7(13)              E7
E|-----------------------------------------
B|2-----2---2-----2---0-----0---0-----0----
G|2-----2---2-----2---1-----1---1-----1----
D|1-----1---1-----1---0-----0---0-----0----
A|---2---------2---------------------------
E|-----------------------0---------0-------

  A7M                 F#7(13-)  F#7
E|-----------------------------------------
B|2-----2---2-----2---3-----3---2-----2----
G|1-----1---1-----1---3-----3---3-----3----
D|2-----2---2-----2---2-----2---2-----2----
A|---0---------0---------------------------
E|-----------------------2---------2-------

  B7(13)              E7
E|-----------------------------------------
B|2-----2---2-----2---0-----0---0-----0----
G|2-----2---2-----2---1-----1---1-----1----
D|1-----1---1-----1---0-----0---0-----0----
A|---2---------2---------------------------
E|-----------------------0---------0-------

BbM7/F                                 A7M
E|5-----5---5-----5---5-----5---5----5---4-
B|3-----3---3-----3---3-----3---3----3---2-
G|3-----3---3-----3---3-----3---3----3---2-
D|---3---------3---------3---------3-----2-
A|---------------------------------------0-
E|-----------------------------------------
Acordes para:
    Composição: Chico Buarque Colaboração e revisão:
    • Tarsius Lima
    • Fernando Yokoyama
    • Paulo Tadeu

    0 comentários

    mostrar mais comentários

    Conseguiu tocar?

    17 tocaram 1 ainda não

    Grave um vídeo tocando A Rita e mande pra gente!

    00:00 / 00:00
    outros vídeos desta música
    repetir qualidade Automático
    Outro vídeos desta música
    00:00 / 00:00
    Automático
    Capítulos
    • Início
    • Tocando a música
    • Acordes da Introdução
    • Tocando Introdução
    • Ensinando Introdução
    • Acordes da Primeira Estrofe
    • Tocando Primeira Estrofe
    • Ensinando Primeira Estrofe
    • Acordes da Segunda Estrofe
    • Tocando Segunda Estrofe
    • Acordes da Quarta Estrofe
    • Tocando Terceira e Quarta Estrofes
    • Tocando Final
    • Encerramento
    OK