Cifra Club

Pensar Em Você

Chico César

Cifra: Principal (violão e guitarra)
tom: D
[Intro] G  A  D D/G

Riff 1
E|----------------------------------------|
B|------0-2-3-5-3-------------------------|
G|--0-2-----------------------------------|
D|----------------------------------------|
A|----------------------------------------|
E|----------------------------------------|

  D              A
É só pensar em você
A#º        Bm
Que muda o dia
Bm/A       G    A7      D
Minha alegria dá pra ver
   F#m           G
Não dá pra esconder
 F#m          G        A7       D
Nem quero pensar se é certo querer
   G           A   A/C#
O que vou lhe dizer
  Gm6  D   F#m
Um beijo seu
  Bm     G    A7        D
E eu vou só pensar em você

[Refrão]

 A  A#º     Bm    F#7        G
Se a chuva cai e o sol não sai
 A   A/G   D     A      A#º     Bm7
Penso em você vontade de viver mais
   G          D    A    D
Em paz com o mundo e comigo (2ª vêz consigo)

[Solo] D  A  A#º Bm  G  A  D

E|----------------------------------------|
B|--7-10----------------------------------|
G|-------7/9-11-9--12-11-9-4-2-0----------|
D|-------------------------------7-5-4----|
A|----------------------------------------|
E|----------------------------------------|

E|----------------------------------------|
B|------0-2-3-5-3-------------------------|
G|--0-2-----------------------------------|
D|----------------------------------------|
A|----------------------------------------|
E|----------------------------------------|

  D              A
É só pensar em você
A#º        Bm
Que muda o dia
Bm/A       G    A7      D
Minha alegria dá pra ver
 F#m              G
Não dá pra esconder
    F#m       G       A7        D
Nem quero pensar se é certo querer
      G           A  A/C#
O que vou lhe dizer
   Gm6 D   F#m
Um beijo seu
  Bm     A7    G        D
E eu vou só pensar em você

[Refrão]

 A    A#º   Bm     F#7        G
Se a chuva cai e o sol não sai
 A    A/G   D     A      A#º     Bm7
Penso em você vontade de viver mais
    G         D    A     D
Em paz com o mundo e consigo

[Final] D  A  A#º  Bm

G        A       D
É só pensar em você
00:00 / 00:00
Outros vídeos desta música
Repetir
Outros vídeos desta música
Composição de Chico Cesar
267.536 exibições
    • ½ Tom
    • A
    • Bb
    • B
    • C
    • Db
    • D
    • Eb
    • E
    • F
    • F#
    • G
    • Ab
  • Adicionar à lista

    0 comentários

    Ver todos os comentários

    Conseguiu tocar?

    6 Tocaram 2 Ainda não

    Grave um vídeo tocando Pensar Em Você e nos envie!

    00:00 / 00:00

    Cifra Club Pro

    Aproveite o Cifra Club com benefícios exclusivos e sem anúncios
    Cifra Club Pro
    Aproveite o Cifra Club com benefícios exclusivos e sem anúncios
    OK