Cifra Club

Canarinho Prisioneiro

Chico Rey e Paraná

Cifra: Principal
exibições 309.563
Tom: G
Intro: G (C) G C D G (C) G (C D C) G

E ]-------------------------------------------------
B ]--------------------------------------------- ---
G#]--0-0-3-0-3-0-5-0-3-0-0-1/5-3-1-0------------ ---      1°Parte
E ]--0-0-4-0-4-0-5-0-4-0-0-2/5-4-2-0-2--------------
B ]----------------------------------4--------------

E ]-------------------------------------------------
B ]-------------------------------------------------
G#]--0-0-3-0-3-0-5-0-3-0-0-1/5--3--1----------------
E ]--0-0-4-0-4-0-5-0-4-0-0-2/5--4--2---2-0--2-0-2-0-
B ]------------------------------------4----4---4---


 G                                         D
Sou aquele canarinho que cantou em seu terreiro
                                           C   G
Em frente sua janela eu cantava o dia inteiro
                                         D
Depois fui pra uma gaiola e me fizeram prisioneiro
          C       G          D                G
Me levaram pra cidade, me trocaram por dinheiro

(intro)

G                                  D
No porão daquele prédio era onde eu morava
                                                    C   G
Me insultavam pra cantar mas de tristeza eu não cantava
                                      D
Naquele viver de preso muitas vezes imaginava
                   C       G          D               G
Se eu "arroubasse" essa gaiola, pro meu sertão eu voltava

(intro)

G                            D
Um dia de tardezinha veio a filha do patrão
                                          C   G
Me viu naquela tristeza e comoveu seu coração
                              D
Abriu a porta da grade me tirando da prisão
          C       G          D               G
Vá-se embora canarinho, vá cantar no seu sertão

(intro)

G                                          D
Hoje estou aqui de volta desde as altas madrugadas
                                           C   G
Anunciando o entardecer e o romper da alvorada
                                        D
Sobrevoando a floresta e alegrando a minha amada
              C       G               D          G
Bem feliz por ter voltado, pra minha velha morada.
Acordes para:
    Colaboração e revisão:

    0 comentários

      mostrar mais comentários

      Conseguiu tocar?

      15tocaram0ainda não

      Grave um vídeo tocando Canarinho Prisioneiro e mande pra gente!

      00:00 / 00:00
      outros vídeos desta música
      repetirqualidadeautomática
      Outro vídeos desta música
        00:00 / 00:00
        automática
        OK