Cifra Club

Aprenda

Risoflora

Chico Science

Cifra: Versão 2 (violão e guitarra)
tom: G
Intro:
E|-5-5-5--5-5-5--5-5--5-5--6-6--5-5-5--5-5-5--5-5--5-5-5--5-5-5|---3-|
B|-5-5-5--5-5-5--5-5--5-5--6-6--5-5-5--5-5-5--5-5--5-5-5--5-5-5|---3-|
G|-------------------------------------------------------------|---4-|
D|-------------------------------------------------------------|-2-3-|2x
A|-------------------------------------------------------------|-2-5-|
E|-------------------------------------------------------------|-0-3-|

Verso:
E|-7-7-7-7-7-7--7-7--7-7-7--7-7-7--8-8--7-7-7-7-7-7--7-7--7-7-7--7-7-7-5-5|
B|-7-7-7-7-7-7--7-7--7-7-7--7-7-7--8-8--7-7-7-7-7-7--7-7--7-7-7--7-7-7-5-5|
G|------------------------------------------------------------------------|
D|------------------------------------------------------------------------|
A|------------------------------------------------------------------------|
E|------------------------------------------------------------------------|
Eu sou um caranguejo e estou de andada 
Só por sua causa,só por você 
E quando estou contigo eu quero gostar 
E quando estou um pouco mais junto 
Eu quero te amar
 
E|7-6-5-5-5-5-5-5--5-5--5-5-5--5-5-5--3-3--5-5-5-5-5-5-5-5-5-5-5-5-5-5-5-5-5-5-|
B|7-6-5-5-5-5-5-5--5-5--5-5-5--5-5-5--3-3--5-5-5-5-5-5-5-5-5-5-5-5-5-5-5-5-5-5-|
G|-----------------------------------------------------------------------------|
D|-----------------------------------------------------------------------------|
A|-----------------------------------------------------------------------------|
E|-----------------------------------------------------------------------------|
E ai,te deitar de lado como a flor que eu tinha na mão
E a esqueci na calçada 
Só por esquecer 
Em               G7
 Apenas porque você não sabe voltar pra mim... 

E|-7-7-7-7-7-7--7-7--7-7-7--7-7-7--8-8--7-7-7-7-7-7--7-7--7-7-7--7-7-7-6-5|
B|-7-7-7-7-7-7--7-7--7-7-7--7-7-7--8-8--7-7-7-7-7-7--7-7--7-7-7--7-7-7-6-5|
G|------------------------------------------------------------------------|
D|------------------------------------------------------------------------|
A|------------------------------------------------------------------------|
E|------------------------------------------------------------------------|

E|-5-5-5-5-5-5--5-5--5-5-5--5-5-5--3-3--5-5-5-5-5-5-5-5-5-5-5-5-5-5-5-5-5-5-|
B|-5-5-5-5-5-5--5-5--5-5-5--5-5-5--3-3--5-5-5-5-5-5-5-5-5-5-5-5-5-5-5-5-5-5-|
G|--------------------------------------------------------------------------|
D|--------------------------------------------------------------------------|
A|--------------------------------------------------------------------------|
E|--------------------------------------------------------------------------|
Oh,Risoflora! 
Vou ficar de andada até te achar, 
Em
Prometo meu amor 
         G7
Vou me regenerar 

E|-5-5-5-5-5-5--5-5--5-5-5--5-5-5--3-3--5-5-5-5-5-5-5-5-5-5-5-5-5-5-5-5-5-5-|
B|-5-5-5-5-5-5--5-5--5-5-5--5-5-5--3-3--5-5-5-5-5-5-5-5-5-5-5-5-5-5-5-5-5-5-|
G|--------------------------------------------------------------------------|
D|--------------------------------------------------------------------------|
A|--------------------------------------------------------------------------|
E|--------------------------------------------------------------------------|
Oh,Risoflora! 
Não vou dá mais bobeira dentro de um caritó 
Em                  G7
Oh,Risoflora,não me deixe só! 

E|-7-7-7-7-7-7--7-7--7-7-7--7-7-7--8-8--7-7-7-7-7-7--7-7--7-7-7--7-7-7-5-5|
B|-7-7-7-7-7-7--7-7--7-7-7--7-7-7--8-8--7-7-7-7-7-7--7-7--7-7-7--7-7-7-5-5|
G|------------------------------------------------------------------------|
D|------------------------------------------------------------------------|
A|------------------------------------------------------------------------|
E|------------------------------------------------------------------------|
Eu sou um caranguejo e quero gostar 
Enquanto estou um pouco mais junto eu quero te amar 
E acho que você não sabe o que é isso não 
E se sabe pelo menos você pode fingir 

E|7-6-5-5-5-5-5-5--5-5--5-5-5--5-5-5--3-3--5-5-5-5-5-5-5-5-5-5-5-5-5-5-5-5-5-5-|
B|7-6-5-5-5-5-5-5--5-5--5-5-5--5-5-5--3-3--5-5-5-5-5-5-5-5-5-5-5-5-5-5-5-5-5-5-|
G|-----------------------------------------------------------------------------|
D|-----------------------------------------------------------------------------|
A|-----------------------------------------------------------------------------|
E|-----------------------------------------------------------------------------|
E em vez de cair em tuas mãos preferi os teus braços 
E em meus braços te levarei como uma flor
Em              G7 
Pra minha maloca na beira do rio,meu amor! 

E|-5-5-5-5-5-5--5-5--5-5-5--5-5-5--3-3--5-5-5-5-5-5-5-5-5-5-5-5-5-5-5-5-5-5-|
B|-5-5-5-5-5-5--5-5--5-5-5--5-5-5--3-3--5-5-5-5-5-5-5-5-5-5-5-5-5-5-5-5-5-5-|
G|--------------------------------------------------------------------------|
D|--------------------------------------------------------------------------|
A|--------------------------------------------------------------------------|
E|--------------------------------------------------------------------------|
Oh,Risoflora! 
Vou ficar de andada até te achar, 
Em
Prometo meu amor 
         G7
Vou me regenerar 

E|-5-5-5-5-5-5--5-5--5-5-5--5-5-5--3-3--5-5-5-5-5-5-5-5-5-5-5-5-5-5-5-5-5-5-|
B|-5-5-5-5-5-5--5-5--5-5-5--5-5-5--3-3--5-5-5-5-5-5-5-5-5-5-5-5-5-5-5-5-5-5-|
G|--------------------------------------------------------------------------|
D|--------------------------------------------------------------------------|
A|--------------------------------------------------------------------------|
E|--------------------------------------------------------------------------|
Oh,Risoflora! 
Não vou dá mais bobeira dentro de um caritó 
Em                  G7
Oh,Risoflora,não me deixe só! 
 
E|-7-7-7-7-7-7--7-7--7-7-7--7-7-7--8-8--|
B|-7-7-7-7-7-7--7-7--7-7-7--7-7-7--8-8--|4x
G|--------------------------------------|
D|--------------------------------------|
A|--------------------------------------|
E|--------------------------------------|

Solo:
E|------8----------|
B|-8-10---10-8-10--|
G|-----------------|
D|-----------------|2x
A|-----------------|
E|-----------------|

E|---------------------|
B|---5---8-5---5-5s10--|
G|-7---7-----7---------|
D|---------------------|
A|---------------------|
E|---------------------|
Composição de Chico Science
Colaboração e revisão:
  • Gabriel Fox
2.644 exibições
    • ½ Tom
    • A
    • Bb
    • B
    • C
    • Db
    • D
    • Eb
    • E
    • F
    • F#
    • G
    • Ab
  • Adicionar à lista

    0 comentários

    Ver todos os comentários

    Conseguiu tocar?

    0 Tocaram 0 Ainda não

    Grave um vídeo tocando Risoflora e nos envie!

    00:00 / 00:00
    Outros vídeos desta música
    Repetir Qualidade Automático
    Outros vídeos desta música
    00:00 / 00:00
    Automático

    Cifra Club Pro

    Aproveite o Cifra Club com benefícios exclusivos e sem anúncios
    Cifra Club Pro
    Aproveite o Cifra Club com benefícios exclusivos e sem anúncios
    OK