Cifra Club

Iemanjá

Chimarruts

Cifra: Principal
exibições 271.635
Tom: G
(intro) G  D  C  D

G                   D
Hoje o reggae bate forte na cabeça
C                      D
como o vento bate forte lá no litoral
G                     D
E as ondas são como a batida da guitarra
C               D
ou então como no toque do meu berimbal
G                     D
e as estrelas são meu grito de alegria
C                  D
e euforia quando o dia é de carnaval
G                      D
então eu danço com meu povo e minha mente gira
C                        D
pois alegria tem que toma conta do lugar
G                 D
de maldades eu to cheio quero fantasia
C                    D
porque sou filho de Ogum e de mãe Iemanjá

(refrão 2x)
G  D    C         D          G
Iiiemanjá vem lavar a nossa fé
    D          C
e Ogum pai do sol
               D                   G
ilumina o meu caminho quero viajar

(solo) G  D  C  D

    G                   D
Ooo pois hoje eu quero viajar pra lá do céu
C                        D
onde não haja fronteiras para me barra
G                 D
quero subir nas estrelas e de la ver mar
C                   D
ver o sorriso da criança livre a brincar
G                  D
e vo plantar uma semente no seu coração
C                   D
para colher futuramente uma nova nação
G                 D
desigualdades e injustiças ha de acabar
C                     D
porque sou filho de Ogum e de mãe Iemanjá

(refrão 4x)
(solo)
E|---------3-3^-----------3-7--5-3----------------------------------
B|-0-1-3-5------3^~-2-3-5------------12/1312--12/1312-12-13-15-17---
G|---------------------------------12--------12---------------------
D|------------------------------------------------------------------
A|------------------------------------------------------------------
E|------------------------------------------------------------------

E|-15-15^-14-15-14-15-14-15-14-15-17-17br-17-15---------------------
B|------------------------------------------------------------------
G|------------------------------------------------------------------
D|------------------------------------------------------------------
A|------------------------------------------------------------------
E|------------------------------------------------------------------

E|------------------------------------------------------------------
B|-17br--17-15------------------------------------------------------
G|------------------------------------------------------------------
D|-------------15br-15-13-15-17-15-19br-19-19br-19--17--------------
A|------------------------------------------------------------------
E|------------------------------------------------------------------
(riff 1)

E|--7br/5--3~----------------------------------|
B|--------------12/1312--12/1312---------------|
G|------------12--------12---------------------|
D|---------------------------------------------|
A|---------------------------------------------|
E|---------------------------------------------|

(riff 2)

E|---------------------------------------------|
B|---------------------------------------------|
G|-12/14--12--16^~--12/14--12/14--16--14~/12---|
D|---------------------------------------------|
A|---------------------------------------------|
E|---------------------------------------------|
Acordes para:

    0 comentários

      mostrar mais comentários

      Conseguiu tocar?

      17tocaram0ainda não

      Grave um vídeo tocando Iemanjá e mande pra gente!

      00:00 / 00:00
      outros vídeos desta música
      repetirqualidadeautomática
      Outro vídeos desta música
        00:00 / 00:00
        automática
        OK