Enviar cifraEntrar

Versos Simples

Chimarruts

Cifra: Simplificada
exibições 359.161
Tom: G

                            G
E|-------------------------3-------------------3----------------
B|-------------------------3-----2--0----------2----------------
G|-------------------------0-----------------------4--2--2------
D|-------------2-4-2-0-----0------------------------------------
A|------5-4-2--------------0------------------------------------
E|-------------------------3-------------3--3-------------------


(Repete a Palhetada em Sol Maior e Toca a ultima nota Solta)


          G
E|-------3-------------------3---------------
B|-------3-----2--0----------2---------------
G|-------0----------------------4--2--0------
D|-------0-----------------------------------
A|-------0-----------------------------------
E|-------3-------------3--3------------------


G            C
Sabe já faz tempo,
        D
Que eu queria te falar
G                  C      D
Das coisas que trago no peito
G
Saudade,
         C                  D        G
Já não sei se é a palavra certa pra usar
               C        D
Ainda lembro do seu jeito

Refrão:
Bm
Não, te trago ouro
Am          D            Bm
Por que ele não entra no céu
                            C
E nenhuma riqueza deste mundo
Bm
Não te trago flores

Am            D              Bm
Por que elas secam e caem ao chão
                            C
Te trago os meus versos, simples
           D           G
Mas que fiz de coração


E|-------------------------|
B|-------------------------|
G|-------------------------|
D|-------------2-4-2-0-----|
A|------5-4-2--------------|
E|-------------------------|


G            C
Sabe já faz tempo,
        D
Que eu queria te falar
G                  C      D
Das coisas que trago no peito
G
Saudade,
         C                  D        G
Já não sei se é a palavra certa pra usar
               C        D
Ainda lembro do seu jeito

Refrão:
Bm
Não, te trago ouro
Am          D            Bm
Por que ele não entra no céu
                            C
E nenhuma riqueza deste mundo
Bm
Não te trago flores

Am            D              Bm
Por que elas secam e caem ao chão
                            C
Te trago os meus versos, simples
           D           G
Mas que fiz de coração
  • 1
  • 2
  • 3
  • 4
  • 5
  • 6
  • 7
  • 8
  • 9
  • 10
  • 11
  • 12
    Acordes para:
      Composição: Cassiane Silva / Richardson MaiaColaboração e revisão:
      • rafa.dias
      • 19kilowatts
      • nAAAAAAAAAA

      0 comentários

        mostrar mais comentários
        00:00 / 00:00
        outros vídeos desta música
        repetirqualidadeautomática
        • automática
        Outro vídeos desta música
          Capítulos
          • Início
          • Acordes da introdução
          • Tocando a introdução
          • Ensinando a introdução
          • Tocando a introdução devagar
          • Acordes da primeira parte
          • Tocando a primeira parte
          • Ensinando o ritmo simples da primeira parte
          • Ensinando o ritmo completo da primeira parte
          • Tocando a primeira parte completa devagar
          00:00 / 00:00
          automática
          • automática
          1 versão de Guitar Proformatodownloadscontribuição
          fecharplay/pause subir/descer velocidade
            acordes
            fechar
            OK
            Feedback