Enviar cifraEntrar

Sinônimos

Chitãozinho & Xororó

Cifra: Principal
exibições 1.819.728
Tom: C
Intro:
Violão 1 - Base:

                C    G/B   Dm    F              C
E|------------|-0----3-----1--------------------------------------|
B|------------|-1----3-----3--------------------------------------|
G|------------|-0----0-----2--------------------------------------|(2x)
D|----------0-|-2----0-----0-----0-2-3-2-0--------0---------------|
A|----0--3----|-3----2------------------------0-3---3-------------|
E|-3----------|-----------------------------3---------------------|


Violão 2 - Solo:

E|------------|-----8-7-5-7-5---5---------------------------------|
B|------------|---------------8---8-6-8-6-5-6-5---5---------------|
G|-------5--7-|-5-------------------------------7---7-5-7-5-5...--|
D|-5--7-------|---------------------------------------------------|
A|------------|---------------------------------------------------|
E|------------|---------------------------------------------------|


E|----------------------------------------------------------------|
B|-----5-5h6-5----------------------------------------------------|
G|---7---------7------5-7-5---------------------------------------|2x
D|----------------5-7---------------------------------------------|
A|----------------------------------------------------------------|
E|----------------------------------------------------------------|


C                    G/B       Dm          F
  Quanto tempo o coração, leva pra saber
C                     G/B       Dm      F
  Que o sinônimo de amar, é sofrer
C                G/B                Dm        F
  Num aroma de amores, pode haver espinhos
C                     G/B               Dm        F
  É como ter mulheres em milhões, e ser sozinho


   (Lick 1)                 (Lick 2 - 3x)                       G
E|-----------------------|--------------------------------------3-|
B|-----------------------|--------------------------------------3-|
G|-----------------------|--------------------------------------0-|
D|0--2--2/3--2--0-------0|0--2--3-/5--3-2-0---------------------0-|
A|------------------0-3--|-------------------3-2--0-------------2-|
E|----------------3------|--------------------------3--1--0-1-3-3-|


G                F            G   F (lick 3)
   Na solidão de casa, descansar
G               Dm           C
   O sentido da vida, encontrar
G/B                          Dm              F
   QUEM pode dizer onde a felicidade, está?. . .

Refrão:
C                       G/B                    Dm
 O amor é feito de paixões e quando perde a razão
  F         G              C
Não sabe quem vai machucar
                     G/B                    Dm
Quem ama nunca sente medo de contar o seu segredo
    F          G          C D
Sinônimo de amor é amar

(Lick 4 - usado para mudar o tom)

E|---------7-5------------|-------------------|
B|--8---7------8-7-5-7-8--|-------------------|
G|------------------------|-------------------|
D|------------------------|-------------------|
A|------------------------|-------------------|
E|------------------------|-------------------|


G                     D/F#      Am           C
  Quem revelará o mistério, que tenha fé
G                     D/F#                     Am     C
  E quantos segredos traz, o coração de uma mulher
G                     D/F#                  Am         C
  Como é triste a tristeza, mendigando um sorriso
G                       D/F#                    Am      C
  Um cego procurando a luz, na imensidão do paraíso

(lick 5)                   (lick 6)

E|--------------------|--------------------------------------|
B|--------------------|--------------------------------------|
G|---------------0-2-0|--------------------------------------|
D|-----------0-2------|7-9-9/10---12-10-9-7-5-4-0-2-0--------|
A|0-2-3-2-0-----------|-------------------------------3-0-3-5|
E|--------------------|--------------------------------------|


D                  Am        D      (lick 7) C
  Quem tem amor na vida, tem sorte
D                Am                 G
  Tem a fraqueza sabe, ser bem mais forte
D/F#                              Am             C
  Ninguém sabe dizer onde a felicidade, está

Refrão 2x:
G                       D/F#                   Am
  O amor é feito de paixões e quando perde a razão
    C          D       G
Não sabe quem vai machucar
                     D/F#                   Am
Quem ama nunca sente medo de contar o seu segredo
   C          D         G
Sinônimo de amor é amar

Solo:  G  D  Am  C  G  Dm  F  G
                    (8x)

E|-10-10--10-----|-9---7-7--5-5--3-3--0-0-|--5-5-5-5---5---7-5-----|
B|-----------7-8-|-10--9-9--7-7--5-5--1-1-|----------8---8-----8-8-|
G|---------------|------------------------|------------------------|
D|---------------|------------------------|------------------------|
A|---------------|------------------------|------------------------|
E|---------------|------------------------|------------------------|


E|----------7-8-7---7--------------------|-------------------|
B|--------8-------8---8-10---------------|-------------------|
G|------7------------------10-10-9-9-7-7-|-------------------|
D|----9----------------------------------|-7p5---------------|
A|-10------------------------------------|-----8-7-5-8p7-5-8-|
E|---------------------------------------|-------------------|


E|-----------5-------------------------|
B|-------------8-6-5-----6-5-----------|
G|-------5-7---------7-5-----7-5-4-7-5-|
D|-3-5/7-------------------------------|
A|-------------------------------------|
E|-------------------------------------|


C                     G         Dm          F
  Quem revelará o mistério, que tenha fé
C                     G                        Dm     F
  E quantos segredos traz, o coração de uma mulher
C                     G                     Dm       F
  Como é triste a tristeza, mendigando um sorriso
C                       G                       Dm     F
  Um cego procurando a luz, na imensidão do paraíso

Refrão 2x:
C                       G                      Dm
 O amor é feito de paixões e quando perde a razão
  F         G              C
Não sabe quem vai machucar
                     G                      Dm
Quem ama nunca sente medo de contar o seu segredo
    F          G          C
Sinônimo de amor é amar

(lick 3)

E|-8-7-5-7-5---5----------------------|
B|-----------8---8-6-8-6-5-6/8-6-5----|
G|---------------------------------7--|
D|------------------------------------|
A|------------------------------------|
E|------------------------------------|


(lick 7)

E|-10-8-7-8-7---7----------------------|
B|-----------10---10-8-10-8-7-10-8-7-5-|
G|-------------------------------------|
D|-------------------------------------|
A|-------------------------------------|
E|-------------------------------------|
  • 1
  • 2
  • 3
  • 4
  • 5
  • 6
  • 7
  • 8
  • 9
  • 10
  • 11
  • 12

    0 comentários

      mostrar mais comentários

      Conseguiu tocar?

      119tocaram1ainda não

      Grave um vídeo tocando Sinônimos e mande pra gente!

      00:00 / 00:00
      outros vídeos desta música
      repetirqualidadeautomática
      • automática
      Outro vídeos desta música
        Capítulos
        • Início
        • Acordes da música
        • Tocando solo da introdução
        • Ensinando solo da introdução
        • Acordes da segunda parte
        • Tocando a segunda parte
        • Ensinando segunda parte
        • Acordes da terceira parte
        • Tocando a terceira parte
        • Ensinando a terceira parte
        • Acordes da quarta parte
        • Tocando a quarta parte
        • Ensinando a quarta parte
        00:00 / 00:00
        automática
        • automática
        fecharplay/pause subir/descer velocidade
          acordes
          fechar
          OK
          Feedback