Cifra Club

Aprenda

Casulo

Choldra

Cifra: Principal (violão e guitarra)
tom: G
intro
e-----------------------------------------------
B---7---8---7-7--------------------------------
G-----------------------------------------------
D----------------------------------------------
A-7--7---------------------------------------
E----------------------------------------------(3x)

e--------------------------------------
B------------------------------------------
G-----7--------7------------7------7-------
D----------------------------------------
A---------------------------------------
E-------------------------------------

base:(repete intro c/base)
e--------------------------------------------------
B--------------------------------------------------
G--------7---------------------------------------
D-3-2-3--7--2-2------------------------------
A-3-2-3--5--2-2------------------------------
E-1-0-1----0-0--------------------------------

verso:

e-------8-7--------8-7-------8-7-8-10-8-7-8-7------
B-----------7----------7--------------------------
G---9-9--------9-9-------8-8-----------------------
D-------------------------------------------------
A-----------------------------------------------
E--------------------------------------------------

pre refrao
e--------------------------------------------------
B-----------------------------------------------
G---9-----9-------------------------------------
D-7-9---7-9------------------------------
A-7-7---7-7-----------------------------
E-5-----5---------------------------------

refrao
e--------------------------------------------------
B--------------------------------------------------
G----------------------7----------------------
D--3--2-3--2-2--3-2-3--7--------------
A--3--2-3--2-2--3-2-3--5--------------
E--1--0-1--0-0--1-0-1-------------------

eh soh issu
Colaboração e revisão:
  • WILLIAM
3.633 exibições
    • ½ Tom
    • A
    • Bb
    • B
    • C
    • Db
    • D
    • Eb
    • E
    • F
    • F#
    • G
    • Ab
  • Adicionar à lista

    0 comentários

    Ver todos os comentários

    Conseguiu tocar?

    0 Tocaram 0 Ainda não

    Grave um vídeo tocando Casulo e nos envie!

    00:00 / 00:00
    outros vídeos desta música
    repetir qualidade Automático
    Outros vídeos desta música
    00:00 / 00:00
    Automático

    Cifra Club Pro

    Aproveite o Cifra Club com benefícios exclusivos e sem anúncios
    Cifra Club Pro
    Aproveite o Cifra Club com benefícios exclusivos e sem anúncios
    OK