Cifra Club

Aprenda

Choldra

Cifra: Principal (violão e guitarra)
tom: F#
Drop B (Drop D 1 1/2 abaixo)
BF#BEG#C#


intro pt I (gtr1 e 2 ao msm tempo)
gtr 1
C# |-------------------------------------------
G# |-------------------------------------------
E  |-----99h10---9h10p9-------------------------
B  |---7-------7--------------------------------
F# |-------------------------------------------
B  |--------------------------------------------
gtr 2                                                    3X
C# |-------------------------------------------
G# |-------------------------------------------
E  |-----99h10----------------------------------
B  |---7-------7-9h10p9-------------------------
F# |-------------------------------------------
B  |--------------------------------------------   
 
intro pt II
gtr 1
C# |-------------------------------------------
G# |-------------------------------------------
E  |-----99h10---9h10p9-------------------------  repete enquanto a outra parte toca
B  |---7-------7--------------------------------
F# |-------------------------------------------
B  |--------------------------------------------
gtr 2
C# |-------------------------------------------------
G# |--13-12----12-13-12----15-13-12----15-13-12-12h13
E  |---------14----------12----------12---------------
B  |--------------------------------------------------
F# |-------------------------------------------------
B  |--------------------------------------------------

fim da intro

C# |-------------------------------------------
G# |-------------------------------------------
E  |-----99h10---99h10--------------------------
B  |---7-------7--------------------------------
F# |-------------------------------------------
B  |--------------------------------------------

Antes do Verso
Gtr 1 e 2
C# |---------------------------------------------
G# |---------------------------------------------
E  |----------------------------------------------
B  |---22\33333-0-22\33333-0-22\33333-0-22\33333-0
F# |--22\33333-0-22\33333-0-22\33333-0-22\33333-0
B  |---22\33333-0-22\33333-0-22\33333-0-22\33333-0

Verso pt 1
Gtr 1
C# |-------------------------------------------
G# |-------------------------------------------
E  |-----9---9-10-10-9--------------------------
B  |---7---7------------------------------------
F# |-------------------------------------------
B  |--------------------------------------------

Verso pt 2
Gtr 1
C# |---------------------------------------------------------------
G# |---------------------------------------------------------------
E  |-----9---9-10-10-9-(3x)----12-13 (1x)-----9---10-10-9-----------
B  |---7---7----------------12--------------7---7-------------------
F# |---------------------------------------------------------------
B  |----------------------------------------------------------------
Gtr 2
C# |-------------------------------------------
G# |-------------------------------------------
E  |--------------------------------------------
B  |---7-10-9-1010-9-1010-99-1010-99-(6x)-------
F# |-------------------------------------------
B  |--------------------------------------------
pm   . .  . .... . . .  .. .... ..


Pre refrão
Gtr 1
C# |-------------------------------------------
G# |-------------------------------------------
E  |--2~-------5~-------------------------------
B  |--2~-------5~-------5~-------3~-------------
F# |-0~-------3~-------5~-------3~-------------
B  |--------------------5~-------3~-------------
Gtr 2
C# |-------------------------------------------
G# |-10101010\13131313\88888888\6666666666-----
E  |--------------------------------------------
B  |--77777777\10101010\55555555\3333333333-----
F# |-------------------------------------------
B  |--------------------------------------------

Refrão
Gtr 1 e 2
C# |----------------------------------------------
G# |---------------------------------------------
E  |----------------------------------------------
B  |---22\33333-0-22\33333-0-22\33333-0-22\33333-0
F# |--22\33333-0-22\33333-0-22\33333-0-22\33333-0
B  |---22\33333-0-22\33333-0-22\33333-0-22\33333-0

Refrão pt 2
Gtr 1
C# |-------------------------------------------
G# |------------------------------------------
E  |---7777--10101010--7-7-7-7--10-9--5555-----
B  |---7777--10101010--7-7-7-7--10-9--5555-----
F# |--5555--8-8-8-8---5-5-5-5--8--7--3333-----
B  |-------------------------------------------

Gtr 2
C# |--10101010\13131313\10101010\13\12\8888-----
G# |-------------------------------------------
E  |--7-7-7-7-\10101010\7-7-7-7-\10\9-\5555-----
B  |--------------------------------------------
F# |--------------------------------------------
B  |--------------------------------------------

repete o verso e o refrao

Após o segundo refrao


C# |-------------------------------------------1
G# |-------------------------------------------
E  |--------------------------------------------
B  |---7~-----5~-----3~-----5~---x5-x5----------
F# |--7~-----5~-----3~-----5~---x5-x5----------
B  |---7~-----5~-----3~-----5~---x5-x5----------

C# |-------------------------------------------
G# |-------------------------------------------
E  |------99----99-1010-9-10--------------------
B  |---77----77---------------------------------
F# |-------------------------------------------
B  |--------------------------------------------

repete o refrão e o fim eh igual a parte após o refrão
Colaboração e revisão:
  • Eros Costa
1.416 exibições
    • ½ Tom
    • A
    • Bb
    • B
    • C
    • Db
    • D
    • Eb
    • E
    • F
    • F#
    • G
    • Ab
  • Adicionar à lista

    0 comentários

    Ver todos os comentários

    Conseguiu tocar?

    0 Tocaram 0 Ainda não

    Grave um vídeo tocando e nos envie!

    00:00 / 00:00
    outros vídeos desta música
    repetir qualidade Automático
    Outros vídeos desta música
    00:00 / 00:00
    Automático

    Cifra Club Pro

    Aproveite o Cifra Club com benefícios exclusivos e sem anúncios
    Cifra Club Pro
    Aproveite o Cifra Club com benefícios exclusivos e sem anúncios
    OK