Cifra Club

Aprenda

Like a Stone

Chris Cornell

Cifra: Principal (violão e guitarra)
Tom: A
[Intro] Gm  F  Dm  Eb
        Gm  F  Dm  Eb

E|-----------------------------------|
B|-----------------------------------|
G|--3-----5--------------8---7-------|
D|-----5-----3-----7-----------------|
A|--------------5-----6----6---------|
E|-----------------------------------|

[Primeira Parte]

      Gm    F
On a cobweb afternoon
   Dm             Eb
In a room full of emptiness
       Gm    F
By a freeway I confess
   Dm              Eb
I was lost in the pages
Gm         F
Of a book full of death
 Dm                Eb
Reading how we'll die alone
    Gm                   F
And if we're good we'll lay to rest
Dm           Eb
Anywhere we want to go

[Refrão]

Gm       Bb      F       Gm
In your house I long to be
 Gm      Bb   F      Gm
Room by room patiently
      Eb            Gm
I'll wait for you there
 F    Gm           Eb            Gm
Like a stone I'll wait for you there
  D
Alone

( Gm  F  Dm  Eb )

E|-----------------------------------|
B|-----------------------------------|
G|--3-----5--------------8---7-------|
D|-----5-----3-----7-----------------|
A|--------------5-----6----6---------|
E|-----------------------------------|

[Segunda Parte]

       Gm      F
On my deathbed I will pray
     Dm             Eb
To the gods and the angels
        Gm      F
Like a pagan to anyone
     Dm              Eb
Who will take me to heaven
 Gm        F
To a place I recall
Dm              Eb
I was there so long ago
      Gm
The sky was bruised
     F
The wine was bled
      Dm             Eb
And there you led me on

[Refrão]

Gm       Bb      F       Gm
In your house I long to be
 Gm      Bb   F      Gm
Room by room patiently
      Eb            Gm
I'll wait for you there
 F    Gm           Eb            Gm
Like a stone I'll wait for you there
  D
Alone
  D
Alone

[Solo] Gm  Bb  F  Gm
       Gm  Bb  F  Gm
       Eb  Gm  F  Gm
       Eb  Gm  D

Parte 1 de 3

E|------------------------------------------|
B|------------------------------------------|
G|------------------------------------------|
D|------------------------------------------|
A|-/10~---/12--/13~---/15---/13---/12---/10~|
E|------------------------------------------|

E|------------------------------------------|
B|------------------------------------------|
G|------------------------------------------|
D|---------------------------------/12~-----|
A|-/10~---/12--/8~---/13----/15-------------|
E|------------------------------------------|

Parte 2 de 3

E|------------------------------------------|
B|------------------------------------------|
G|-/15-15-15--14-14-14----------------------|
D|----------------------15-15-15--12-12-12\-|
A|------------------------------------------|
E|------------------------------------------|

E|------------------------------------------|
B|------------------------------------------|
G|-/15-15-15--14-14-14----------------------|
D|----------------------15-15-15--12-12-12\-|
A|------------------------------------------|
E|------------------------------------------|

Parte 3 de 3

E|------------------------------------------|
B|------------------------------------------|
G|------------------------------------/12---|
D|---------------------/12--/13--/15--------|
A|-/10--/12--/13--/15-----------------------|
E|------------------------------------------|

E|------------------------------------------|
B|------------------------------------------|
G|-/14--15--14--15--14----------------------|
D|------------------------------------------|
A|------------------------------------------|
E|------------------------------------------|

[Ponte]

    Eb     Bb
And on I read
   D7          Eb
Until the day was gone
       Ebm    C7
And I sat in regret
   D7                Gm
Of all the things I've done
    Eb       Bb
For all that I've blessed
    D7              Eb
And all that I've wronged
Ebm                 C
In dreams until my death
        D
I will wander on

[Refrão]

Gm       Bb      F       Gm
In your house I long to be
 Gm      Bb   F      Gm
Room by room patiently
      Eb            Gm
I'll wait for you there
 F    Gm           Eb            Gm
Like a stone I'll wait for you there
  D
Alone
  D   Eb
Alone
Composição de Brad Wilk / Chris Cornell / Tim Commerford / Tom Morello
50.236 exibições
    • ½ Tom
    • A
    • Bb
    • B
    • C
    • Db
    • D
    • Eb
    • E
    • F
    • F#
    • G
    • Ab
  • Adicionar à lista

    0 comentários

    Mostrar mais comentários

    Conseguiu tocar?

    13 Tocaram 3 Ainda não

    Grave um vídeo tocando Like a Stone e mande pra gente!

    00:00 / 00:00
    outros vídeos desta música
    repetir qualidade Automático
    Outros vídeos desta música
    00:00 / 00:00
    Automático

    Cifra Club Pro

    Aproveite o Cifra Club com benefícios exclusivos e sem anúncios
    Cifra Club Pro
    Aproveite o Cifra Club com benefícios exclusivos e sem anúncios
    OK