Cifra Club

Aprenda

Nothing Compares 2 U

Chris Cornell

Cifra: Principal (violão e guitarra)
tom: C
Intro: 2x
      C                         G/B
E|-0----0--0-0-0-----0--0--|-3----3--3-3-3-3----3--3--|
B|-1----1--1-1-1-----1--1--|-0----0--0-0-0-0----0--0--|
G|-0----0--0-0-0-----0--0--|-0----0--0-0-0-0----0--0--|
D|-2----2--2-2-2-2h3-2--2--|-0----0--0-0-0-0----0--0--|
A|-3----3--3-3-3-----3--3--|-2----2--2-2-2-2----2--2--|
E|-------------------------|--------------------------|

      Am                        C               G
E|-0----0--0-0-0-0---0--0--|-0---0-0---------3---3-3-3---3---|
B|-1----1--1-1-1-1---1--1--|-1---1-1---------0---0-0-0---0---|
G|-2----2--2-2-2-2---2--2--|-0---0-0---------0---0-0-0---0---|
D|-2----2--2-2-2-2---2--2--|-2---2-2-3---2---0---0-0-0---0---|
A|-0----0--0-0-0-0---0--0--|-3---3-3-3---3---2---2-2-2---2---|
E|-------------------------|-----------------3---3-3-3---3---|

Solo:
E|---------------------------|------------------------|---------------------------|
B|---------------------------|------------------------|---------------------------|
G|---------0------0h2--0-----|------------5h7~--5-5~--|--9/10--9--7--5------------|
D|---2--3-----0~-------------|------5--7--------------|-----------------5h7p5-----|
A|------------------------3~-|--/7--------------------|-----------------------7---|
E|---------------------------|------------------------|---------------------------|

E|-------------------|-----------------------|
B|-------------------|-----------------------|
G|-------------------|--------0--------------|
D|-------------------|-----3-----0~----------|
A|---7/5--3--5/7--5--|--3---------------3~---|
E|-------------------|-----------------------|

Verso 1:
      C                         G/B
E|-0----0--0-0-0-----0--0--|-3----3--3-3-3-3----3--3--|
B|-1----1--1-1-1-----1--1--|-0----0--0-0-0-0----0--0--|
G|-0----0--0-0-0-----0--0--|-0----0--0-0-0-0----0--0--|
D|-2----2--2-2-2-2h3-2--2--|-0----0--0-0-0-0----0--0--|
A|-3----3--3-3-3-----3--3--|-2----2--2-2-2-2----2--2--|
E|-------------------------|--------------------------|

      Am                        C               G
E|-0----0--0-0-0-0---0--0--|-0---0-0---------3---3-3-3---3---|
B|-1----1--1-1-1-1---1--1--|-1---1-1---------0---0-0-0---0---|
G|-2----2--2-2-2-2---2--2--|-0---0-0---------0---0-0-0---0---|
D|-2----2--2-2-2-2---2--2--|-2---2-2-3---2---0---0-0-0---0---|
A|-0----0--0-0-0-0---0--0--|-3---3-3-3---3---2---2-2-2---2---|
E|-------------------------|-----------------3---3-3-3---3---|

Pré-Refrão:
E|-0-------0-------0-------0-0--------|
B|-0-------0-------0-------0-0--------|
G|-1---x-x-1---x-x-1---x-x-1-1-x-x----|
D|-2---x-x-2---x-x-2---x-x-2-2-x-x----|
A|-2---x-x-2---x-x-2---x-x-2-2-x-x----|
E|-0-------0-------0-------0-0--------|

Refrão:
      Bb               F                       G/B
E|-1---1-1-1-1-1-1--1---1-1-1-1-1-1--|    --3-----3--3-------3-3-3--|
B|-3---3-3-3-3-3-3--1---1-1-1-1-1-1--|    --0-----0--0-------0-0-0--|
G|-3---3-3-3-3-3-3--2---2-2-2-2-2-2--|    --0-----0--0-------0-0-0--|
D|-3---3-3-3-3-3-3--3---3-3-3-3-3-3--|    --0-----0--0-------0-0-0--|
A|-1---1-1-1-1-1-1--3---3-3-3-3-3-3--|    --2-----2--2-------2-2-2--|
E|------------------1---1-1-1-1-1-1--|    --------------------------|
   play 2x                                  Last Bar


Verso 2:
      F                 F7
E|-1-----1---1-1-1---1-1-1-1-------|
B|-1-----1---1-1-1---4-4-4-4--x-x--|  
G|-2-----2---2-2-2---2-2-2-2--x-x--|   
D|-3-----3---3-3-3---1-1-1-1--x-x--|  
A|-3-----3---3-3-3---3-3-3-3--x-x--|  
E|-1-----1---1-1-1---1-1-1-1-------|

Pré-Refrão:
E|-0-------0-------0-------0-0--------|
B|-0-------0-------0-------0-0--------|
G|-1---x-x-1---x-x-1---x-x-1-1-x-x----|
D|-2---x-x-2---x-x-2---x-x-2-2-x-x----|
A|-2---x-x-2---x-x-2---x-x-2-2-x-x----|
E|-0-------0-------0-------0-0--------|

Refrão 2:
      Bb               F                  Am           G
E|-1---1-1-1-1-1-1--1---1-1-1-1-1-1--|-0----0-0---0-3----3-3-3-3-|
B|-3---3-3-3-3-3-3--1---1-1-1-1-1-1--|-1----1-1---1-0----0-0-0-0-|
G|-3---3-3-3-3-3-3--2---2-2-2-2-2-2--|-2----2-2---2-0----0-0-0-0-|
D|-3---3-3-3-3-3-3--3---3-3-3-3-3-3--|-2----2-2---2-0----0-0-0-0-|
A|-1---1-1-1-1-1-1--3---3-3-3-3-3-3--|-0----0-0---0-2----2-2-2-2-|
E|------------------1---1-1-1-1-1-1--|--------------3----3-3-3-3-|

      G
E|-3----3-3----3-3-3-3----3-3-3--|
B|-0----0-0----0-0-0-0----0-0-0--|
G|-0----0-0----0-0-0-0----0-0-0--|
D|-0----0-0----0-0-0-0----0-0-0--|
A|-2----2-2----2-2-2-2----2-2-2--|
E|-3----3-3----3-3-3-3----3-3-3--|

Solo:
E|-1---1-1-1-1-1-1--1---1-1-1-1-1-1--|-0----0-0---0-3----3-3-3-3-|
B|-3---3-3-3-3-3-3--1---1-1-1-1-1-1--|-1----1-1---1-0----0-0-0-0-|
G|-3---3-3-3-3-3-3--2---2-2-2-2-2-2--|-2----2-2---2-0----0-0-0-0-|
D|-3---3-3-3-3-3-3--3---3-3-3-3-3-3--|-2----2-2---2-0----0-0-0-0-|
A|-1---1-1-1-1-1-1--3---3-3-3-3-3-3--|-0----0-0---0-2----2-2-2-2-|
E|------------------1---1-1-1-1-1-1--|--------------3----3-3-3-3-|
 
E|-0-------0-----------------|--3--------------|
B|-0-------0-----------------|--0--------------|
G|-1---x-x-1--------x-x-x----|--0--------------|
D|-2---x-x-2--------x-x-x----|--0--------------|
A|-2---x-x-2--------x-x-x----|--2--------------|
E|-0-------0-----------------|--3--------------|

Solo:
E|---------------------------------------|---------|------8--10--10b-r-p8-------------------|
B|---------------------------------------|---------|-----------------------10---------------|
G|---------5--7--7/9----9-----7--5--5/7--|---------|--------------------------/9--7--5------|
D|---/7----------------------------------|--/7--5--|------------------------------------7---|
A|---------------------------------------|---------|----------------------------------------|
E|---------------------------------------|---------|----------------------------------------|

E|--------------------|-------------------------------------------------|--8-8-8--5-5------|
B|---5----------------|-------------------------------------------------|--------------8---|
G|-----7-5------------|------------5--7/9--10--9--7--5--/9--7--5-----5--|------------------|
D|---------7-5--------|------5--7---------------------------------7-----|------------------|
A|-------------7-5-3--|--/7---------------------------------------------|------------------|
E|--------------------|-------------------------------------------------|------------------|

E|------------------------|--------------------------------|---------------------------|--------------------|
B|---5--------------------|--------------------------------|---------------------------|--------5-----------|
G|-----7-5----------------|-----------------5--7/9---9--9--|--9--9--7--5--/9--7--5-----|------4---4---------|
D|---------7-5------------|-----------5--7-----------------|------------------------6--|----6-------6-------|
A|-------------7-5---5/7--|---5--5/7-----------------------|---------------------------|--7-----------7-7---|
E|------------------------|--------------------------------|---------------------------|--------------------|

E|-------------------------------|-------------|----------------|----------------------|---------|
B|-------------1p0-------1-------|------1------|----------------|----------------------|-----0---|
G|-----------3-----3-------3-----|--------2----|-------------0--|--2-2-0---------------|--0------|
D|---------3---------3-------3---|----2--------|-------------2--|--------2-0-----------|---------|
A|---1---1-------------1---------|--0----------|-------------2--|------------2-0-------|---------|
E|-------------------------------|----------3--|---3-2-0---0-0--|----------------3-----|---------|

Verso:
      C                         G/B
E|-0----0--0-0-0-----0--0--|-3----3--3-3-3-3----3--3--|
B|-1----1--1-1-1-----1--1--|-0----0--0-0-0-0----0--0--|
G|-0----0--0-0-0-----0--0--|-0----0--0-0-0-0----0--0--|
D|-2----2--2-2-2-2h3-2--2--|-0----0--0-0-0-0----0--0--|
A|-3----3--3-3-3-----3--3--|-2----2--2-2-2-2----2--2--|
E|-------------------------|--------------------------|

      Am                        C               G
E|-0----0--0-0-0-0---0--0--|-0---0-0---------3---3-3-3---3---|
B|-1----1--1-1-1-1---1--1--|-1---1-1---------0---0-0-0---0---|
G|-2----2--2-2-2-2---2--2--|-0---0-0---------0---0-0-0---0---|
D|-2----2--2-2-2-2---2--2--|-2---2-2-3---2---0---0-0-0---0---|
A|-0----0--0-0-0-0---0--0--|-3---3-3-3---3---2---2-2-2---2---|
E|-------------------------|-----------------3---3-3-3---3---|

Refrão 2:
      Bb               F                  Am           G
E|-1---1-1-1-1-1-1--1---1-1-1-1-1-1--|-0----0-0---0-3----3-3-3-3-|
B|-3---3-3-3-3-3-3--1---1-1-1-1-1-1--|-1----1-1---1-0----0-0-0-0-|
G|-3---3-3-3-3-3-3--2---2-2-2-2-2-2--|-2----2-2---2-0----0-0-0-0-|
D|-3---3-3-3-3-3-3--3---3-3-3-3-3-3--|-2----2-2---2-0----0-0-0-0-|
A|-1---1-1-1-1-1-1--3---3-3-3-3-3-3--|-0----0-0---0-2----2-2-2-2-|
E|------------------1---1-1-1-1-1-1--|--------------3----3-3-3-3-|

      G
E|-3----3-3----3-3-3-3----3-3-3--|
B|-0----0-0----0-0-0-0----0-0-0--|
G|-0----0-0----0-0-0-0----0-0-0--|
D|-0----0-0----0-0-0-0----0-0-0--|
A|-2----2-2----2-2-2-2----2-2-2--|
E|-3----3-3----3-3-3-3----3-3-3--|

Final:
E|-0--------------------0-0-|--3--------------|
B|-0--------------------0-0-|--0--------------|
G|-1---x-x------x-x-x-x-1-1-|--0--------------|
D|-2---x-x------x-x-x-x-2-2-|--0--------------|
A|-2---x-x------x-x-x-x-2-2-|--2--------------|
E|-0--------------------0-0-|--3--------------|
Composição de Prince
Colaboração e revisão:
  • omar jabbar
  • Lucas Kappaun
24.155 exibições
    • ½ Tom
    • A
    • Bb
    • B
    • C
    • Db
    • D
    • Eb
    • E
    • F
    • F#
    • G
    • Ab
  • Adicionar à lista

    0 comentários

    Ver todos os comentários

    Conseguiu tocar?

    2 Tocaram 0 Ainda não

    Grave um vídeo tocando Nothing Compares 2 U e nos envie!

    00:00 / 00:00
    outros vídeos desta música
    repetir qualidade Automático
    Outros vídeos desta música
    00:00 / 00:00
    Automático

    Cifra Club Pro

    Aproveite o Cifra Club com benefícios exclusivos e sem anúncios
    Cifra Club Pro
    Aproveite o Cifra Club com benefícios exclusivos e sem anúncios
    OK