Cifra Club

Aprenda

Redemption Song

Chris Cornell

Cifra: Principal (violão e guitarra)
Tom: A (forma dos acordes no tom de G) Capotraste na 2ª casa
Intro:
E|----------------|----------------|--------------------|------------|
B|----------------|----------------|--------------------|------------|
G|----------------|----------------|--------------------|------------|
D|----------------|------2---0-----|--------------0-----|------------|
A|------0---2-----|--3-----------2-|------0---2-------2-|--3-2-0-----|
E|--3-----------3-|----------------|--3-----------------|----------3-|

E|----------------|----------------|----------------|--------------|
B|----------------|----------------|----------------|--------------|
G|----------------|----------------|----------------|--------------|
D|----------------|------2---0-----|--------------0-|--------------|
A|------0---2-----|--3-----------2-|------0---2-----|--2-3-2-0-----|
E|--3-----------3-|----------------|--3-------------|------------3-|

Primeira Parte:
     G                  Em7
Old Pirates, yes, they rob I
     C         G/B       Am
Sold I to the merchant ships
G                 Em      C          G/B      Am
  minutes after they took I   from the bottomless pit
          G        Em7
(But) my hand was made strong
        C        G/B  Am
By the hand of the Almighty
    G                   Em   C           D
We forward in this generation triumphantly

Refrão:
                   G   C         D         G
Won't you help to sing    these songs of freedom?
      C     D     Em  C       D        G
Cause all I ever had,      redemption songs
C    D        G      C   D
  Redemption songs

Segunda Parte:
         G                            Em7
  Emancipate yourselves from mental slavery
             C      G/B          Am
None but ourselves can free our minds
         G              Em
Have no fear for atomic energy
                 C        G/B     Am
'Cause none of them can stop the time
     G                         Em7
How long shall they kill our prophets
           C     G/B      Am
While we stand aside and look?
            G               Em
(Uh,) some say it's just a part of it
       C                  D
We've got to fulfill the book

Refrão:
                   G   C         D         G
Won't you help to sing    these songs of freedom?
      C     D     Em  C       D        G
Cause all I ever had,      redemption songs
C    D        G      C   D
  Redemption songs

(Em C D)  (4x)

Segunda Parte:
         G                            Em7
  Emancipate yourselves from mental slavery
             C      G/B          Am
None but ourselves can free our minds
         G              Em
Have no fear for atomic energy
                 C        G/B     Am
'Cause none of them can stop the time
     G                         Em7
How long shall they kill our prophets
           C     G/B      Am
While we stand aside and look?
            G               Em
(Uh,) some say it's just a part of it
       C                  D
We've got to fulfill the book

Refrão
 D                 G   C        D         G
Won't you help to sing   these songs of freedom?
      C     D     Em  C    D        G
Cause all I ever had,   redemption songs     
      C     D     Em  C    D        G    C    D        G
Cause all I ever had,   redemption songs,  redemption songs

C    D       D
  Redemption songs
Composição de Bob Marley
Colaboração e revisão:
  • Lucas Kappaun
  • Carlos Spinassi
40.291 exibições
    • ½ Tom
    • A
    • Bb
    • B
    • C
    • Db
    • D
    • Eb
    • E
    • F
    • F#
    • G
    • Ab
  • Adicionar à lista

    0 comentários

    Mostrar mais comentários

    Conseguiu tocar?

    5 Tocaram 0 Ainda não

    Grave um vídeo tocando Redemption Song e mande pra gente!

    00:00 / 00:00
    outros vídeos desta música
    repetir qualidade Automático
    Outros vídeos desta música
    00:00 / 00:00
    Automático

    Cifra Club Pro

    Aproveite o Cifra Club com benefícios exclusivos e sem anúncios
    Cifra Club Pro
    Aproveite o Cifra Club com benefícios exclusivos e sem anúncios
    OK