Cifra Club

Aprenda

You Know My Name

Chris Cornell

Cifra: Principal (violão e guitarra)
Tom: A
Introdução 4x: Bm  G  E

     Bm    G    E                Bm    G    E
E|---2-2--3-3--7-7---------------2-2--3-3--7-7------------------------------|
B|---3-3--3-3--9-9---------------3-3--3-3--9-9------------------------------|
G|---4-4--4-4--9-9---------------4-4--4-4--9-9------------------------------|
D|---4-4--5-5--9-9---------------4-4--5-5--9-9---------------11~------------|
A|---2-2--5-5--7-9--9-11b12r11~--2-2--5-5--7-7--9-11b12r11-9----------------| 
E|---2-2--4-4--x-x---------------2-2--4-4--x-x------------------------------|

     Bm    G    E     Bm    G    E
E|---2-2--3-3--7-7~---2-2--3-3--7-7~--------------------------|
B|---3-3--3-3--9-9~---3-3--3-3--9-9~--------------------------|
G|---4-4--4-4--9-9~---4-4--4-4--9-9~--------------------------|
D|---4-4--5-5--9-9~---4-4--5-5--9-9~--11b12r11-9/7------------|  
A|---2-2--5-5--7-7~---2-2--5-5--7-7~---------------9~~--------| 
E|---2-2--4-4--x-x~---2-2--4-4--x-x~--------------------------|  

Primeira Parte:
Bm                                         Gm
If you take a life do you know what you'll give?
                     D
Odds are, you won't like what it is.
  Bm                                            Gm
When the storm arrives, would you be seen with me?
           D                F#m
By the merciless eyes of deceit? 

G         F#m                Bm A    G#m
I've seen angels fall from blinding heights
 G           F#m              Bm A G#m  G
But you yourself are nothing so divine 
              F#m
Just next in line

Refrão:
Bm                    G                     E
Arm yourself because no-one else here will save you
               Bm        G
The odds will betray you 
       E
And I will replace you 
     Bm              G                    E
You can't deny the prize it may never fulfill you 
             Bm      G
It longs to kill you 
                    E
Are you willing to die? 

              E
The coldest blood runs through my veins 
Bm    G   E
You know my name 

Segunda Parte:
Bm                                         Gm
If you come inside things will not be the same 
            D
When you return to the night 
Bm
And if you think you've won 
                   Gm
You never saw me change 
               D            F#m
The game that we all been playing 

G          F#m                  Bm A   G#m  G
I've seen diamonds cut through harder men 
              F#m
Than you yourself
            Bm    A G#m G
But if you must pretend 
                  F#m
You may meet your end 

Refrão:
Bm                    G                     E
Arm yourself because no-one else here will save you
               Bm        G
The odds will betray you 
            E
And I will replace you 
     Bm              G                    E
You can't deny the prize it may never fulfill you 
             Bm      G
It longs to kill you 
                    E
Are you willing to die? 

              E
The coldest blood runs through my veins 

You know my name 
You know my name 
You know my name 
You know my name 
You know my name 
You know my name 
You know my name
Composição de Chris Cornell
Colaboração e revisão:
  • Lucas Kappaun
  • Fernando Henrique
  • Felipe Regis
55.106 exibições
    • ½ Tom
    • A
    • Bb
    • B
    • C
    • Db
    • D
    • Eb
    • E
    • F
    • F#
    • G
    • Ab
  • Adicionar à lista

    0 comentários

    Mostrar mais comentários

    Conseguiu tocar?

    8 Tocaram 0 Ainda não

    Grave um vídeo tocando You Know My Name e mande pra gente!

    00:00 / 00:00
    outros vídeos desta música
    repetir qualidade Automático
    Outros vídeos desta música
    00:00 / 00:00
    Automático

    Cifra Club Pro

    Aproveite o Cifra Club com benefícios exclusivos e sem anúncios
    Cifra Club Pro
    Aproveite o Cifra Club com benefícios exclusivos e sem anúncios
    OK