Cifra Club

Millionaire

Chris Stapleton

Cifra: Principal (violão e guitarra)
tom: C (forma dos acordes no tom de A) Capotraste na 3ª casa
[Intro]
             G                       C2     G/B            G
E|---------| -3-----------3-----------3-----3-|-3-----------3-------3-3---------|
B|---------| -3-----------3-----------3-----3-|-3-----------3-------3-3---------|
G|-----0---| -0-----------0-----------0-----0-|-0-----------0-------0-0-----0---|
D|-0-2-----| -0-----------0-----------0-----0-|-0-----------0-----------0-2-----|
A|---------| -2-----------2-----------2h3---2-|-2-----------2-------------------|
E|---------| -3-----------3-------------------|-3-----------3-------------------|
 
               D                     C9           C2
E|-3-------------------------------| -3-3-3-3-3-----------------------|
B|-3---------------3---3-3-3---3---| -3-3-3-3-3-----------------------|
G|-0-----------0h2---0-2-4-2---0---| -0-0-0-0-0---0-------------------|
D|-0-----------0-------0-0-0---0---| -2-------2---0-------------------|
A|-2-------------------------------| -3-------3---3-------------------|
E|-3-------------------------------| ---------------------------------|

         G            C9         G
They say love is more precious than gold
                  D                C9 
It can't be bought and it can't be sold
         G     C9    G
I've got love enough to spare
             D           C9  C# 
That makes me a millionaire

G/B    C9                             G
         I've got a woman with eyes that shine
D/F#  C9             G      D/F#
Down deep as a diamond mine
C9                         G
  She's my treasure so very rare
D/F#     C9         G   
She made me a millionaire
D/F#   C9                                       G      
         When we ride around, ride around this old town
      D/F#    C9                G
In my beat up car with the windows down
D/F#   C9                                        G   
         People look at her and then they look at me
              C9                     G    D
And say "that boy is sure living in luxury"    Sweet luxury
  G            C9         G
'Cause love is more precious than gold
            G          D4          C  9
It can't be bought no, never could be sold
      G      C9    G
I got love, enough to share
          G    D4         C9   G/B  C9
That made me   a     millionaire

( C9  G  G  C9  G  G  D4  C9   G/B  C9 )

[Solo]

E|-----------------------------------------13/15\13--------------------------------------------|
B|-13/15------15\13-------13/15-13/15---------------15\13-11----11/13------13/15\13/15\13------| |
G|------------------15---------------------------------------12---------------------------15---|
D|---------------------15----------------------------------------------------------------------|
A|---------------------------------------------------------------------------------------------|
E|---------------------------------------------------------------------------------------------|

Cadd9                          G
When the kisses fall from everywhere
     D4    C           G     D4
Like riches on a millionaire
Cadd9                                         G
When my pockets are empty and the cupboard is bare
  D4   C9              G       D4
I still feel like a millionaire

       G                C9         G
'Cause love is more precious than gold
    C9    G               D4    C9
It can't be bought and it can't be sold
      G       C9    G
I got love, enough to spare
           G   D4        C9
That makes me a     millionaire
           G  D4         C9
That makes me a     millionaire
00:00 / 00:00
Outros vídeos desta música
Repetir
Outros vídeos desta música
Composição de Solomon Burke
Colaboração e revisão:
  • Willian @twilliann
  • vitor costa
7.935 exibições
    • ½ Tom
    • A
    • Bb
    • B
    • C
    • Db
    • D
    • Eb
    • E
    • F
    • F#
    • G
    • Ab
  • Adicionar à lista

    0 comentários

    Ver todos os comentários

    Conseguiu tocar?

    0 Tocaram 0 Ainda não

    Grave um vídeo tocando Millionaire e nos envie!

    Entre para oCifra Club PRO

    Tenha acesso a benefícios exclusivos no App e no Site

    • Chega de anúncios

    • Prioridade de compra em lançamentos

    • Mais recursos no app do Afinador

    • Atendimento Prioritário

    • Descontos nos produtos Cifra Club

    • Ajude a produzir mais conteúdo

    00:00 / 00:00

    Cifra Club Pro

    Aproveite o Cifra Club com benefícios exclusivos e sem anúncios
    Cifra Club Pro
    Aproveite o Cifra Club com benefícios exclusivos e sem anúncios
    OK