Cifra Club

Ausência

Chrystian & Ralf

Cifra: Principal
exibições 131.737
Tom: D#
[Intro] Cm  Fm  Bb  Eb  Ab  Fm  G

E|--11-10-11-8-11-10-11--------------13-11-13-10-13-11-13--------------------|
B|----------------------11-9-9-8-9~~----------------------9-8-8-7-8~~--------|
G|---------------------------------------------------------------------------|
D|---------------------------------------------------------------------------|
A|---------------------------------------------------------------------------|
E|---------------------------------------------------------------------------|

E|--------8-7-11-10-13-------------------------------------------------------|
B|--8-7-8--------------------------------------------------------------------|
G|---------------------------------------------------------------------------|
D|-----------------------5-3-------------------------------------------------|
A|---------------------------5-6-3~~-----------------------------------------|
E|---------------------------------------------------------------------------|

Cm
Se eu te deixo
         Fm
Sei que vai morrer
     G
Sem mim
                Cm
Não tem mais uma noite
                     Fm   Bb
Prá afagar os seus cabelos
                      Eb
Pra tocar, beijar seu rosto
   G
Antes de dormir
Cm
Se eu te deixo
    Fm
Nada vai restar
 G
De um grande amor
   Cm
Igual ao meu
                     Fm
Feito louca você vai buscar
 Bb          Eb
Minhas mãos até o amanhecer
  C
Até o amanhecer
Fm                              Bb
Em teus sonhos vai sentir meu cheiro
Eb          G           Cm
Coração batendo forte no teu seio
Fm                        Bb     G
Desesperada você vai gritar
         Cm      C
Te amo inteiro, te amo

[Solo] Cm  Bb  Ab
       Cm  Bb  Ab

Fm                              Bb
Em teus sonhos vai sentir meu cheiro
Eb          G           Cm
Coração batendo forte no teu seio
Fm                        Bb     G
Desesperada você vai gritar
         Cm          G              Cm
Te amo inteiro, te amooo te amo inteiro
Acordes para:

    0 comentários

      mostrar mais comentários

      Conseguiu tocar?

      6tocaram1ainda não

      Grave um vídeo tocando Ausência e mande pra gente!

      00:00 / 00:00
      outros vídeos desta música
      repetirqualidadeautomática
      Outro vídeos desta música
        00:00 / 00:00
        automática
        OK