Cifra Club

New York

Chrystian & Ralf

Cifra: Principal
exibições 327.440
Tom: C
[Intro]  C  G  Dm  F  C  G Dm  F  C

E|--8-8-8-8-8-8-8--7-5-----------------------------------------|
B|----------------------8-6-5---------5-6--------5-6-5---------|
G|-----------------------------7-7---------7-7----------7-5----|
D|-------------------------------------------------------------|
A|-------------------------------------------------------------|
E|-------------------------------------------------------------|

E|--8-8-8-8-8-8-8--7-5-----------------------------------------|
B|----------------------8-6-5---------5-6--------5-6-5---------|
G|-----------------------------7-7---------7-7----------7-5----|
D|-------------------------------------------------------------|
A|-------------------------------------------------------------|
E|-------------------------------------------------------------|

E|-----------------------------------------------|
B|--------6-5-----6-7----------------------------|
G|------------7-------7-5------------------------|
D|-----------------------------------------------|
A|-----------------------------------------------|
E|-----------------------------------------------|

Dm           F             C
Essa é a história de um novo herói
 Dm            F           C
Cabelos compridos a rolar no vento
 Dm           F           C
Pela estrada no seu caminhão
  Dm        F                C
Cravado no peito a sombra de um dragão

 F                     C
Tinha um sonho ir pra nova york
 C
Levar a namorada
 F                  C
Fazer seu caminhão voar nas nuvens
 F                 C
Mas enquanto isso na estrada

         Dm
Saudade vai, vai, vai
         F
Saudade vem, vem, vem
       C
Te buscar

0 comentários

    mostrar mais comentários

    Conseguiu tocar?

    17tocaram0ainda não

    Grave um vídeo tocando New York e mande pra gente!

    00:00 / 00:00
    outros vídeos desta música
    repetirqualidadeautomática
    Outro vídeos desta música
      00:00 / 00:00
      automática
      OK