Cifra Club

Aprenda

Nova York

Chrystian & Ralf

Cifra: Principal (violão e guitarra)
Tom: G
[Solo] D  Am  C  G

E|-3-3-3-3-3-3-3-2-0--------------------------------|
B|-------------------3-1-0---------0-1------0-1-----|
G|-------------------------2----2------2-2------2---|
D|--------------------------------------------------|
A|--------------------------------------------------|
E|--------------------------------------------------|

E|-3-3-3-3-3-3-3-2-0--------------------------------|
B|-------------------3-1-0-------0-1------0-1-0-----|
G|-------------------------2---2-----2-2--------2-0-|
D|--------------------------------------------------|
A|--------------------------------------------------|
E|--------------------------------------------------|

Am             C          G
  Essa é a história de um novo herói
Am             C          G
  Cabelos compridos a rolar no vento
Am           C          G
  Pela estrada no seu caminhão
Am             C               G         G7
  Cravado no peito a sombra de um dragão
C                        G
  Tinha um sonho ir pra Nova York
Levar a namorada
C                      G              G7
  Fazer seu caminhão voar nas nuvens
C                    G
  Mas enquanto isso na estrada
       Am    G/B   C
Saudade vai, vai, vai
       Am    G/B   C         G
Saudade vem, vem, vem te buscar

[Solo] D  Am  C  G

E|-3-3-3-3-3-3-3-2-0--------------------------------|
B|-------------------3-1-0---------0-1------0-1-----|
G|-------------------------2----2------2-2------2---|
D|--------------------------------------------------|
A|--------------------------------------------------|
E|--------------------------------------------------|

E|-3-3-3-3-3-3-3-2-0--------------------------------|
B|-------------------3-1-0-------0-1------0-1-0-----|
G|-------------------------2---2-----2-2--------2-0-|
D|--------------------------------------------------|
A|--------------------------------------------------|
E|--------------------------------------------------|

Am             C          G
  Essa é a história de um novo herói
Am             C          G
  Cabelos compridos a rolar no vento
Am           C          G
  Pela estrada no seu caminhão
Am             C               G         G7
  Cravado no peito a sombra de um dragão
C                        G
  Tinha um sonho ir pra Nova York
Levar a namorada
C                      G              G7
  Fazer seu caminhão voar nas nuvens
C                    G
  Mas enquanto isso na estrada
       Am    G/B   C
Saudade vai, vai, vai
       Am    G/B   C         G
Saudade vem, vem, vem te buscar

Am    G/B   C
Saudade vai, vai, vai
       Am    G/B   C         G
Saudade vem, vem, vem te buscar

[Solo] D  Am  C  G

E|-3-3-3-3-3-3-3-2-0--------------------------------|
B|-------------------3-1-0---------0-1------0-1-----|
G|-------------------------2----2------2-2------2---|
D|--------------------------------------------------|
A|--------------------------------------------------|
E|--------------------------------------------------|

E|-3-3-3-3-3-3-3-2-0--------------------------------|
B|-------------------3-1-0-------0-1------0-1-0-----|
G|-------------------------2---2-----2-2--------2-0-|
D|--------------------------------------------------|
A|--------------------------------------------------|
E|--------------------------------------------------|
Composição de Chrystian / Ralf
Colaboração e revisão:
138.992 exibições
    • ½ Tom
    • A
    • Bb
    • B
    • C
    • Db
    • D
    • Eb
    • E
    • F
    • F#
    • G
    • Ab
  • Adicionar à lista

    0 comentários

    Mostrar mais comentários
    00:00 / 00:00
    outros vídeos desta música
    repetir qualidade Automático
    Outros vídeos desta música
    00:00 / 00:00
    Automático

    Cifra Club Pro

    Aproveite o Cifra Club com benefícios exclusivos e sem anúncios
    7 dias grátis
    Cifra Club Pro
    Aproveite o Cifra Club com benefícios exclusivos e sem anúncios
    7 dias grátis
    OK