Cifra Club

Aquele Adeus

Cicero

Cifra: Principal (violão e guitarra)
Selo Cifra Club: esta cifra foi revisada para atender aos critérios oficiais da nossa Equipe de Qualidade.
tom: C
   C          C           Fm6        Fm6
E|-----------------------------------------------|
B|-1------1---1-------1---1-------1----------1---|
G|-------0----------0-----------1----------1-----|
D|----2----------2-----------0----------0--------|
A|-3----------3----------------------------------|
E|------------------------1----------1-----------|

   C          C           F6         Fm6
E|-----------------------------------------------|
B|-1------1---1-------1---1-------1----------1---|
G|-------0----------0-----------2----------1-----|
D|----2----------2-----------0----------0--------|
A|-3----------3----------------------------------|
E|------------------------1----------1-----------|

   Am         D9(7)       D4(7/9)     D7(9)       
E|------------------------------------------------|
B|-1------1---5-------5---5-------5---5-------5---|
G|-------2----------5-----------5-----------5-----|
D|----2----------6-----------5-----------4--------|
A|-0----------5-----------5-----------5-----------|
E|------------------------------------------------|

   Dm7(9)      Fm6
E|--------------------------|
B|-5-------5---1--------1---|
G|-------5------------1-----|
D|----3------------0--------|
A|-5------------------------|
E|-------------1------------|

C         C            Fm6   Fm6
  Aquele adeus não deu conta
C       C           F6       Fm6
  Ainda sei o que você vai dizer
Am        D9(7)   D4(7/9) D7(9)
  Tarde demais ou algo assim
Dm7(9)      Fm6
  Concordaremos

C               C           Fm6  Fm6
  Dia desses pensei em te ligar
C            C           F6       Fm6
  Mas eu não sei o que você vai dizer
Am        D9(7)   D4(7/9) D7(9)
  Tarde demais ou algo assim
Dm7(9)      Fm6
  Não saberemos

   C          C9          Am         Fm6
E|-----------------------------------------------|
B|-1------1---3-------3---1-------1----------1---|
G|-------0----------1-----------2----------1-----|
D|----2----------2-----------2----------0--------|
A|-3----------3-----------0----------------------|
E|-----------------------------------1-----------|

   Am         D9(7)       D4(7/9)     D9/F#       
E|------------------------------------------------|
B|-1------1---5-------5---5-------5---3-------3---|
G|-------2----------5-----------5-----------2-----|
D|----2----------6-----------5-----------2--------|
A|-0----------5-----------5-----------2-----------|
E|------------------------------------------------|

   C          Fm6         C          Fm6
E|-----------------------------------------------|
B|-1------1---1-------1---1-------1---1------1---|
G|-------0----------1-----------0----------1-----|
D|----2----------0-----------2----------0--------|
A|-3----------------------3----------------------|
E|------------1-----------------------1----------|

    C           C9   Am     Fm6
E o tempo a passar e se repetir
Am             D9(7)  D4(7/9)   D9/F#
Todo momento está     a seguir
C             Fm6   C  Fm6
Com ou sem você aqui

   C          C           Fm6        Fm6
E|-----------------------------------------------|
B|-1------1---1-------1---1-------1----------1---|
G|-------0----------0-----------1----------1-----|
D|----2----------2-----------0----------0--------|
A|-3----------3----------------------------------|
E|------------------------1----------1-----------|

   C          C           F6         Fm6
E|-----------------------------------------------|
B|-1------1---1-------1---1-------1----------1---|
G|-------0----------0-----------2----------1-----|
D|----2----------2-----------0----------0--------|
A|-3----------3----------------------------------|
E|------------------------1----------1-----------|

   Am         D9(7)       D/F#       D/F       
E|------------------------------------------------|
B|-1------1---5-------5---3-------3---3-------3---|
G|-------2----------5-----------2-----------2-----|
D|----2----------6-----------0-----------0--------|
A|-0----------5-----------------------------------|
E|------------------------2-----------1-----------|

   C          Fm6         Am          D9/F#
E|-----------------------------------------------|
B|-1------1---1-------1---1-------1---3------3---|
G|-------0----------1-----------2----------2-----|
D|----2----------0-----------2----------2--------|
A|-3----------------------0----------------------|
E|------------1-----------------------2----------|

   C        C       Fm6             Fm6
Queria te falar das coisas que entendi
   C          C         F6  Fm6
Eu quis te dizer só verdade
  Am            D9(7)
A gente vai passar
     D/F#       D/F
Ninguém vai perceber
C             Fm6   Am  D9/F#
Por onde andará você?
C             Fm6   
Por onde andará você?

( C   Fm6 )
Outros vídeos desta música
    20.598 exibições
    • Simplificar cifra
      • ½ Tom
      • A
      • Bb
      • B
      • C
      • Db
      • D
      • Eb
      • E
      • F
      • F#
      • G
      • Ab
    • Adicionar à lista

    Afinação da cifra

    Afinador online

      0 comentários

      Ver todos os comentários

      Entre para o Cifra Club PRO

      Tenha acesso a benefícios exclusivos no App e no Site

      • Chega de anúncios

      • Badges exclusivas

      • Mais recursos no app do Afinador

      • Atendimento Prioritário

      • Aumente seu limite de lista

      • Ajude a produzir mais conteúdo

      Cifra Club Pro

      Aproveite o Cifra Club com benefícios exclusivos e sem anúncios
      Cifra Club Pro
      Aproveite o Cifra Club com benefícios exclusivos e sem anúncios
      Ops (: Contenido disponible sólo en portugués.
      OK