Cifra Club

Cecília e Os Balões

Cicero

Cifra: Principal (violão e guitarra)
Selo Cifra Club: esta cifra foi revisada para atender aos critérios oficiais da nossa Equipe de Qualidade.
tom: Bb
    D7M*
Pra começar
    D6*
Pra colorir
  F#m/C#
Algum lugar
    F#m6
Que seja aqui
    Am/C          B7
Com um balão só
   Bb7M        D4/A  D/A
Já dá pra voar

( Gm7*  Dm/F  Bb7M  D4/A  D/A  Gm7*  Dm/F  Bb7M G4/C* )

    D7M*
Pra começar
    D6*
Pra descobrir
     F#m/C#
O que é chegar
       F#m6
E o que é partir
  Am/C          B7
O coração só
   Bb7M        D4/A  D/A
Precisa de ar

Gm7*  Dm/F  Bb7M       D4/A  D/A
       E deixar
Gm7*  Dm/F  Bb7M       D4/A  D/A
Uuuuuh
Gm7*  Dm/F  Bb7M  G4/C*
Uuuuuh


( Gm* Dm/F Gm/Bb* D4/A*  ) 2x

( Eb7M Gm* Bb7M Dm/F ) 4x

Acordes:

D7M*

E|-----------|
B|-----3-----|
G|-----6-----|
D|-----4-----|
A|-----5-----|
E|-----------|

D6*

E|-----------|
B|-----3-----|
G|-----4-----|
D|-----4-----|
A|-----5-----|
E|-----------|

Gm7*

E|-----1-----|
B|-----3-----|
G|-----3-----|
D|-----------|
A|-----------|
E|-----3-----|

G4/C*

E|-----3-----|
B|-----3-----|
G|-----2-----|
D|-----------|
A|-----3-----|
E|-----------|

Gm*

E|-----------|
B|-----3-----|
G|-----3-----|
D|-----0-----|
A|-----------|
E|-----3-----|

Gm/Bb*

E|-----------|
B|-----8-----|
G|-----7-----|
D|-----8-----|
A|-----------|
E|-----6-----|

D4/A*

E|-----------|
B|-----8-----|
G|-----7-----|
D|-----8-----|
A|-----0-----|
E|-----------|
Outros vídeos desta música
    30.790 exibições
      • ½ Tom
      • A
      • Bb
      • B
      • C
      • Db
      • D
      • Eb
      • E
      • F
      • F#
      • G
      • Ab
    • Adicionar à lista

    Afinação da cifra

    Afinador online

      0 comentários

      Ver todos os comentários

      Entre para o Cifra Club PRO

      Tenha acesso a benefícios exclusivos no App e no Site

      • Chega de anúncios

      • Badges exclusivas

      • Mais recursos no app do Afinador

      • Atendimento Prioritário

      • Aumente seu limite de lista

      • Ajude a produzir mais conteúdo

      Cifra Club Pro

      Aproveite o Cifra Club com benefícios exclusivos e sem anúncios
      Cifra Club Pro
      Aproveite o Cifra Club com benefícios exclusivos e sem anúncios
      Ops (: Contenido disponible sólo en portugués.
      OK