Cifra Club

Aprenda

Pelo Interfone

Cicero

Cifra: Principal (violão e guitarra)
tom: G
[Intro] F7+/A  Fm/G#  C#7+(9)  G#6

F7+/A                  Fm/G#
Fala pra ele que ele é um sonho bom
      C#7+(9)              G#6
Que mudou o tom da tua vida
F7+/A   G#6
Comprida

F7+/A                    Fm/G#
Fala pra ele do disco do tom jobim
           C#7+(9)
Do seu apelido e de mim
    G#6        C#7+(9)
E chora

     F7+/A            Fm/G#                C#7+(9)             G#6
E|--------------------------------------------------------------------------------|
B|-5-5---5-5---5---5---6---6-6---6---6-6---4---4-4---4---4-4---4---4-4---4---4-4--|
G|-5-5---5-5---5---5---5---5-5---5---5-5---5---5-5---5---5-5---5---5-5---5---5-5--|
D|-3-3---3-3---3---3---3---3-3---3---3-3---3---3-3---3---3-3---3---3-3---3---3-3--|
A|---------------------------------------4---4-----4---4--------------------------|
E|-5---5-----5---5---4---4-----4---4-------------------------4---4-----4---4------|

( C#7M/F  C#7+(9) )

E|---8---8-8---8---8-8---------------------|
B|---9---9-9---9---9-9---4---4-4---4---4-4-|
G|---6---6-6---6---6-6---5---5-5---5---5-5-|
D|-----------------------3---3-3---3---3-3-|
A|-8---8-----8---8-----4---4-----4---4-----|
E|-----------------------------------------|

[Refrão]

Cm/Eb   Fm7      G#
Ah, dindi
G#6      Cm/Eb    Fm7     G#
Se tu soubesses
G#6    Cm/Eb   Fm7
Como machuca
G#     G#6         Cm/Eb   Cm9/D   F7(9)  G#6
  Não amaria mais ninguém

    Cm/Eb     Fm7       G#        G#6      Cm/Eb      Fm7        G#       G#6

E|---------------------------------------------------------------------------------|
B|---4---4-4---1---1-1---4---4-4---4---4-4---4---4-4---1---1-1---4---4-4---4---4-4-|
G|---5---5-5---1---1-1---5---5-5---5---5-5---5---5-5---1---1-1---5---5-5---5---5-5-|
D|---5---5-5---1---1-1---6---6-6---3---3-3---5---5-5---1---1-1---6---6-6---3---3-3-|
A|-6---6---------------6---6---------------6---6---------------6---6-----6---------|
E|-----------1---1-----4---4-----4---4---------------1---1-----4---4-----4---4-----|

    Cm/Eb     Fm7       G#        G#6       Cm/Eb     Cm9/D     F7(9)     G#6

E|---------------------------------------------------------------------------------|
B|---4---4-4---1---1-1---4---4-4---4---4-4---4---4-4---4---4-4---1---1-1---4---4-4-|
G|---5---5-5---1---1-1---5---5-5---5---5-5---5---5-5---5---5-5---0---0-0---5---5-5-|
D|---5---5-5---1---1-1---6---6-6---3---3-3---5---5-5---5---5-5---1---1-1---3---3-3-|
A|-6---6---------------6---6---------------6---6-----5---5-------------------------|
E|-----------1---1-----4---4-----4---4-------------------------1---1-----4---4-----|

( F7+/A  Fm/G#  C#7+(9)   G#6 )

F7+/A
Fala pra ele
            Fm/G#
Que a vida é um balão
        C#7+(9)
Pra cuidar do seu coração
      G#6
E chora
      C#7+(9)
Pra onde elas vão?
      C#7M/F  C#7+(9)
Embora

[Refrão]

Cm/Eb   Fm      G#
Ah, dindi
G#6      Cm/Eb    Fm     G#
Se tu soubesses
G#6    Cm/Eb   Fm
Como machuca
G#     G#6         Cm/Eb
  Não amaria mais ninguém

( Cm9/D  F7(9)  G#6 )

Cm/Eb   Fm7      G#
Ah, dindi
G#6      Cm/Eb    Fm     G#
Se tu soubesses
G#6    Cm/Eb    Fm7
Ah, se tu soubesses
G#     G#6         Cm/Eb
  Não contaria pra ninguém

( Cm/Eb  Fm7  G#  G#6 )

 F7+/A                        F/G#
Fala pra ele o que nunca falou pra ninguém
    C#7+(9)
Pra ele também
Composição de Cicero
114.604 exibições
    • ½ Tom
    • A
    • Bb
    • B
    • C
    • Db
    • D
    • Eb
    • E
    • F
    • F#
    • G
    • Ab
  • Adicionar à lista

    0 comentários

    Ver todos os comentários

    Conseguiu tocar?

    32 Tocaram 9 Ainda não

    Grave um vídeo tocando Pelo Interfone e nos envie!

    00:00 / 00:00
    Outros vídeos desta música
    Repetir Qualidade Automático
    Outros vídeos desta música
    00:00 / 00:00
    Automático

    Cifra Club Pro

    Aproveite o Cifra Club com benefícios exclusivos e sem anúncios
    Cifra Club Pro
    Aproveite o Cifra Club com benefícios exclusivos e sem anúncios
    OK