Cifra Club

Luta de Classes

Cidade Negra

Cifra: Principal (violão e guitarra)
Tom: A#m
[Intro]  C# G# F#
         C# G#

E|-----------------|---------------|-----------------------|
B|-----------------|---------------|-----------------------|
G|--6---6---5------|----6---6---6--|----------5-----5------| 2X
D|----8---8---8-6--|--8---8---8----|--8-8-8-8---8-6---8-6--|
A|-----------------|---------------|-----------------------|
E|-----------------|---------------|-----------------------|

C#                                    G#
Tudo o que eu posso ver, essa neblina
F#                                         C#        G#
cobrindo o entardecer,em cada esquina
C#                                   G#
Tudo o que eu posso ver, essa fumaça
F#                                       C#         G#
cobrindo o entardecer,em cada vidraça

            C#                                                     G#
Mas eu quero te contar os fatos eu posso mostrar fatos pra você
       F#                                             C#        G#
É só ter um pouco mais de tato e fica claro pra você
C#                                       G#
Desde a antiguidade as coisas estão assim, assim
F#                                                 C#          G#
os homens não são iguais não são, não são iguais enfim

C#                                    G#
Dai toda essa história, dai a história surgiu
      F#                                      C#           G#
escravo da babilônia trabalhador do Brasil

C#                                    G#
Tudo o que eu posso ver, essa neblina
F#                                         C#      G#
cobrindo o entardecer,em cada esquina
C#                                   G#
Tudo o que eu posso ver, essa fumaça
F#                                       C#     G#
cobrindo o entardecer,em cada vidraça

       C#                   G#
Mas veio o ideário da  da revolução burguesa
F#                                   C#        G#
e veio o ideário, veio o sonho socialista
C#                                    G#
Veio a promessa de igualdade e liberdade

       F#
cometas cintilantes que se foram pela noite
           C#             G#
existirão enquanto   houver o maior

C#                                    G#
Dai é que vem a história, dai a história surgiu
      F#                                      C#       G#
escravo da babilônia trabalhador do Brasil

C#                                    G#
Dai é que vem a história, dai a história surgiu
      F#                                      C#       G#
escravo da babilônia trabalhador do Brasil

E|---------------|-------------|    |---------------|---------|
B|---------------|-------------|    |---------------|---------|
G|--6-4-6-4-6-4--|----------4--| 3X |--6-4-6-4-6-4--|------4--|
D|---------------|--6-6-4-6----|    |---------------|--4-6----|
A|---------------|-------------|    |---------------|---------|
E|---------------|-------------|    |---------------|---------|

C#    F# B
Do Egito antigo
na Grécia e Roma
na Europa feudal
do mundo colonial
no mundo industrial
na URSS stalinista
em wall street
em Cuba comunista
e no Brasil
e no Brasil ... Hein? ...

C#                                    G#
Dai que vem a História dai o homem serviu
      F#                                    C#      G#
escravo para servo trabalhador do Brasil
C#                                    G#
Dai é que vem a história, dai a história surgiu
      F#                                      C#       G#
escravo da babilônia trabalhador do Brasil

E|-----------------|---------------|-----------------------|
B|-----------------|---------------|-----------------------|
G|--6---6---5------|----6---6---6--|----------5-----5------| 2X
D|----8---8---8-6--|--8---8---8----|--8-8-8-8---8-6---8-6--|
A|-----------------|---------------|-----------------------|
E|-----------------|---------------|-----------------------|

C#      G#
essa neblina

Chega junto baixada

E|-----------------|---------------|-----------------------|
B|-----------------|---------------|-----------------------|
G|--6---6---5------|----6---6---6--|----------5-----5------| 2X
D|----8---8---8-6--|--8---8---8----|--8-8-8-8---8-6---8-6--|
A|-----------------|---------------|-----------------------|
E|-----------------|---------------|-----------------------|

C#      G#
essa fumaça
exibições 16.339
Acordes para:
    Composição: Chico Amaral / Samuel Rosa Colaboração e revisão:
    • Gilson Feitosa
    • Allison Cardoso

    0 comentários

    mostrar mais comentários

    Conseguiu tocar?

    0 tocaram 0 ainda não

    Grave um vídeo tocando Luta de Classes e mande pra gente!

    00:00 / 00:00
    outros vídeos desta música
    repetir qualidade Automático
    Outros vídeos desta música
    00:00 / 00:00
    Automático
    OK