Cifra Club

Celofán

La Gusana Ciega

Cifra: Versão 3 (violão e guitarra)
tom: C
Intro
     G5              C5
E|-------------------------------------|
B|-------------------------------------|
G|------------------5-5-5-4b-----------| ( también durante el primer verso)
D|----5-5-5-4b------5-5-5-----5h4------|
A|----5-5-5----5h3--3-3-3--------------|
E|----3-3-3----------------------------|

1er verso:
Comprar azul acero es todo lo que quiero,
plantar un par de sueños y despegar del suelo.



E|---------------------------------|
B|---------------------------------|
G|------------------5-4------------|
D|----5-5-5-4b------5-4-7----------|
A|----5-5-5----5h3--3-2-7----------|
E|----3-3-3-------------5----------|

RIFF 2
E|---3---3-2h3/2------------|
B|-----3---------3h1--------|
G|--------------------------| (se toca tambien durante el segundo verso)
D|--------------------------|
A|--------------------------|
E|--------------------------|

2do verso:
Soñar envuelto en pliegos, dejar atrás el miedo.
Quebrar las formas viejas y despertar de nuevo.



CORO:

Es papel de celofán, lo que cambia de color,
lo que pierdes con el tiempo y lo que vuelves a encontrar

E|-------------------| -------------------------
B|-------------------| -------------------------
G|---------------7-9-| -------------------------
D|-5-5-5--6--7---7-9-| x3   ----5-5-5-6-7-7/6/5-----
A|-5-5-5--6--7---5-7-| ----5-5-5-6-7-7/6/5-----
E|-3-3-3--4--5-------| ----3-3-3-4-5-5/4/3-----






INTRO x2

RIFF 2 (IGUAL TAMBIEN DURANTE EL TERCER VERSO)

TERCER VERSO:
No estoy volando lejos, no estoy volando cerca,
eso que quieres ver en mi es lo que se refleja.

CORO:

Es papel de celofán, lo que cambia de color,
lo que pierdes con el tiempo y lo que vuelves a encontrar

E|-------------------| ------------------------
B|-------------------| ------------------------
G|---------------7-9-| ------------------------
D|-5-5-5--6--7---7-9-| x3   ----5-5-5-6-7-7/6/5-----
A|-5-5-5--6--7---5-7-| ----5-5-5-6-7-7/6/5-----
E|-3-3-3--4--5-------| ----3-3-3-4-5-5/4/3-----

G  O:
E|-------------------------------------| -------------------------------
B|-------------------------------------| -------------------------------
G|----7/9-7h6--------------------------| ---7/9-7h6-------4-------------
D|-------------7-5-7-5h6h7-------------| -------------7-5---5h6h7-------
A|-------------------------------------| -------------------------------
E|-------------------------------------| -------------------------------

E|-------------10-------10b-10b---8----8b-------| ---------------------
B|--9/10---13------13---------------10-----10---| ----------8-------10-
G|--------------------------------------------9-| -9/10h9--------------
D|----------------------------------------------| ---------------------
A|----------------------------------------------| ---------------------
E|----------------------------------------------| ---------------------
00:00 / 00:00
Outros vídeos desta música
Repetir
Outros vídeos desta música
Composição de Daniel Gutierrez
    • ½ Tom
    • A
    • Bb
    • B
    • C
    • Db
    • D
    • Eb
    • E
    • F
    • F#
    • G
    • Ab
  • Adicionar à lista

    0 comentários

    Ver todos os comentários

    Conseguiu tocar?

    0 Tocaram 0 Ainda não

    Grave um vídeo tocando Celofán e nos envie!

    Entre para oCifra Club PRO

    Tenha acesso a benefícios exclusivos no App e no Site

    • Chega de anúncios

    • Prioridade de compra em lançamentos

    • Mais recursos no app do Afinador

    • Atendimento Prioritário

    • Descontos nos produtos Cifra Club

    • Ajude a produzir mais conteúdo

    00:00 / 00:00

    Cifra Club Pro

    Aproveite o Cifra Club com benefícios exclusivos e sem anúncios
    Cifra Club Pro
    Aproveite o Cifra Club com benefícios exclusivos e sem anúncios
    OK