Cifra Club

Héroes de Malvinas

Ciro Y Los Persas

Cifra: Principal (violão e guitarra)
tom: E
E                               A
Puede más la indiferencia de tu gente
B                            E
Que la bala más voraz del enemigo
E                              A
Me pregunto que pasaba por la mente
B                                E
Del infame que te estacaba en el frió

Te sacaron de lo hondo de la selva         (mismas notas de la
O de algún potrero ingenuo y olvidado        anterior estrofa)
Te sacaron de tu casa y sin abrigo
Te largaron en el viento sur helado

Te entregaron armas que no conocías
Que con suerte cada tanto funcionaban
En un hoyo que cavaste repetías
Las canciones que creías olvidadas

No sabías que era sentirte tan lejano
Ni que el hambre se comiera tus entrañas
Solo estaba la mirada de un hermano
Con la misma incertidumbre en la mirada

(Estribillo)
A
Por siempre serán héroes
G
Por siempre serán héroes
B                               E
Por siempre nuestros héroes de Malvinas.. (bis)

G  O
E5 - A5 - B5 - E5
e||-5---5---5-----5------------|----------------------||
B||-7b8-7b8-7b8---7b8b7-5-3-5--|-7b8b7-5-3------------||
G||----------------------------|----------6/4-4-2p0---||
D||----------------------------|-------------------2--||
A||----------------------------|----------------------||
E||----------------------------|----------------------||

e||------------------------------------3p0-3p0--------||
B||---------------------------------3h5---------------||
G||----------3b4------3b4-3p2p0--2/4------------------||
D||---------------------------------------------------||
A||---------------------------------------------------||
E||-0-3-3-0-3----3-3-0--------------------------------||

e||-12------12--12--12--12--------12-----12----|--14-----15-------||
B||-15b17--b17-b17-b17-b17---15b17--15b17--15--|--17b19--18b20----||
G||--------------------------------------------|------------------||
D||--------------------------------------------|------------------||
A||--------------------------------------------|------------------||
E||--------------------------------------------|------------------||

e||---------------------|----------|-----------|-------------|--------------||
B||---------------------|----------|---15------|-------------|--------------||
G||---12-14b15b14-12-14-|-12-14-15-|-12--14-12-|-12-14-15-14-|-12-14-15-12--||
D||-14------------------|----------|-----------|-------------|------------14||
A||---------------------|----------|-----------|-------------|--------------||
E||---------------------|----------|-----------|-------------|--------------||



e||-12------/17-15----||
B||-15b17---------17--||
G||-------------------||
D||-------------------||
A||-------------------||
E||-------------------||


E5                                A5
De Corrientes, Buenos Aires y del Chaco
B5                           E5
Desde Córdoba, Mendoza y la Pampa
E5                             A5
Desde todas las provincias Argentinas
B5                             E5
Los llevaron para hacer una patriada

Y coraje fue lo que ellos demostraron          (mismas notas de la
Frente a uno, dos, tres, cuatro enemigos         anterior estrofa)
Los ingleses que venían preparados
Frio, hambre y a los jefes Argentinos

La basura indefinible de esa historia
Que soñó con perpetuarse en la Rosada
Debería haber sido inmediatamente por sus pares
En la gran plaza de Mayo, fusilada

(Estribillo)
A5
Por siempre serán héroes
G5
Por siempre serán héroes
B5                              E5
Por siempre nuestros héroes de Malvinas


E                                A
Puede más la indiferencia de tu gente
B                          E
Que la bala más voraz del enemigo
E                                A
Hubo menos héroes muertos en el frente
B                                E
Que en el campo de batalla del olvido

E5                            A5
Y allá quedarán eternos centinelas
B5                           E5
Sin relevo esperándote algún día
E5                                 A5
Sin que corra sangre y vuelva la celeste y blanca
B5                              E5
A flamear sobre esas tierras Argentinas!!
00:00 / 00:00
Outros vídeos desta música
Repetir
Outros vídeos desta música
Composição de Andrés Ciro Martinez
170 exibições
    • ½ Tom
    • A
    • Bb
    • B
    • C
    • Db
    • D
    • Eb
    • E
    • F
    • F#
    • G
    • Ab
  • Adicionar à lista

    0 comentários

    Ver todos os comentários

    Conseguiu tocar?

    0 Tocaram 0 Ainda não

    Grave um vídeo tocando Héroes de Malvinas e nos envie!

    00:00 / 00:00

    Cifra Club Pro

    Aproveite o Cifra Club com benefícios exclusivos e sem anúncios
    Cifra Club Pro
    Aproveite o Cifra Club com benefícios exclusivos e sem anúncios
    OK