Cifra Club

Day Old Hate

City And Colour

Cifra: Versão 4 (violão e guitarra)
Selo Cifra Club: esta cifra foi revisada para atender aos critérios oficiais da nossa Equipe de Qualidade.
tom: D
INTRO

E|------0h2-------2h3p2------2--|--5------0-| X2
B|-----------0------------------|--7------3-|
G|-------------0---------0------|--7------0-|
D|---0h2------------------------|--0------2-|
A|------------------------------|--0------3-|
E|------------------------------|-----------|

VERSE  pt 1

E|-2--------------------2h3p2-------2--5---3--| X3
B|-0-str| um a couple -----------0-------7---0--|
G|-0----t| imes lightly------------0-----7---0--|
D|-2-----------------------------------0---2--|
A|-0-------------------wh| ile-----------0---3--|
E|---------------------str| umming--------------|

VERSE   pt 2

E|2----5---0--| X2
B|3----7---3--|
G|0----7---0--|
D|2----0---2--|
A|0----0---3--|
E|------------|


CHORUS

E|0--0--| x4
B|3--3--|
G|0--0--|
D|2--0--|
A|0--3--|
E|0-----|


INTRO   X2
VERSE pt 2   X3
CHORUS   X4
Outros vídeos desta música
    25 exibições
      • ½ Tom
      • A
      • Bb
      • B
      • C
      • Db
      • D
      • Eb
      • E
      • F
      • F#
      • G
      • Ab
    • Adicionar à lista

    Afinação da cifra

    Afinador online

      0 comentários

      Ver todos os comentários

      Conseguiu tocar?

      0Tocaram1Ainda não

      Grave um vídeo tocando Day Old Hate e nos envie!

      Toque também

      1. Imagem do artista AlexisonfirePulmonary Archery Alexisonfire
      2. Imagem do artista The Spill CanvasPolygraph Right Now The Spill Canvas
      3. Imagem do artista You+MeLove Gone Wrong You+Me
      4. Imagem do artista William FitzsimmonsI Kissed a Girl William Fitzsimmons

      Entre para o Cifra Club PRO

      Tenha acesso a benefícios exclusivos no App e no Site

      • Chega de anúncios

      • Badges exclusivas

      • Mais recursos no app do Afinador

      • Atendimento Prioritário

      • Aumente seu limite de lista

      • Ajude a produzir mais conteúdo

      Cifra Club Pro

      Aproveite o Cifra Club com benefícios exclusivos e sem anúncios
      Cifra Club Pro
      Aproveite o Cifra Club com benefícios exclusivos e sem anúncios
      OK