Cifra Club

Plastic Plan

Cky

Cifra: Principal (violão e guitarra)
exibições 482
Tom: C
Played a whole step down

Main Riff (intro, verse and chorus)
D|----------------------------------------------------------------------
A|----------------------------------------------------------------------
F----------------------------------------------------------------------
C------------------------------------------------------------------4-2-
G|-7-7-7-7-7-7-7-7--/9-7---------------4-4-4-4-4-4-4-4-4-4--5-4---2-----
D|-5-5-5-5-5-5-5-5-------9-7-5-7/-9-5--2-2-2-2-2-2-2-2-2-2------5-------
  . . . . . . . .                     . . . . . . . . . . 

Main Riff Varitation (listen out for it)
D|--------------------------------------------------------------------------
A|--------------------------------------------------------------------------
F--------------------------------------------------------------------------
C--------------------------------------------------------------------------
G|-7-7-7-7-7-7-7-7--/9-7---------------4-4-4-4-4-4-4-4-4-4--5-4---2-4-2-4-2-
D|-5-5-5-5-5-5-5-5-------9-7-5-7/-9-5--2-2-2-2-2-2-2-2-2-2------5-----------
  . . . . . . . .                     . . . . . . . . . .

Pre|-Chorus
D|----------------------------------------------------------------------------------------
A|----------------------------------------------------------------------------------------
F----------------------------------------------------------------------------------------
C----------------------------------------------------------------------------------------
G|-7-7-7-7-7-7-7-7---------------4-4-4-4-4-4-4-4-4-4-4-4-4-4-4-4--5-5-5-5-5-5-5-5-5-5-5-5-
D|-5-5-5-5-5-5-5-5--5-7-5-7-5-9--2-2-2-2-2-2-2-2-2-2-2-2-2-2-2-2--3-3-3-3-3-3-3-3-3-3-3-3-
  . . . . . . . .               . . . . . . . . . . . . . . . .  . . . . . . . . . . . .

D|-----------------------------------------------
A|-----------------------------------------------
F-----------------------------------------------
C-----------------------------------------------
G|-5-5--4-4--2-2-------2-2--4-4--2-2-2-2-2-2-2-2-
D|----------------5-5----------------------------

Bridge (one guitar plays this while the other plays the main riff)
D|--------------------------------------------------------------------------
A|--------------------------------------------------------------------------
F--------------------------------------------------------------------------
C------------------------------7-6-----------------------------------------
G|-----7-4------7-4------7-4--------7-------4-0------4-0----5-4-0-2-4-2-4---
D|-5-5------5-5------5-5------5---------2-2------2-2------2-----------------

At the end of the bridge both guitars play this

D|------------------------------------------------------------------------
A|------------------------------------------------------------------------
F------------------------------------------------------------------------
C------------------------------------------------------------------------
G|-5-5-5-5-5-5-5-5-5-5-5-5--5-5--4-4--2-2-------2-2--4-4--2-2-2-2-2-2-2-2-
D|-3-3-3-3-3-3-3-3-3-3-3-3-----------------5-5----------------------------
Acordes para:
    Composição: Chad I. Ginsburg / Deron Miller / Jess Margera Colaboração e revisão:
    • Jorge Miguel

    0 comentários

    mostrar mais comentários

    Conseguiu tocar?

    0 tocaram 0 ainda não

    Grave um vídeo tocando Plastic Plan e mande pra gente!

    00:00 / 00:00
    outros vídeos desta música
    repetir qualidade Automático
    Outros vídeos desta música
    00:00 / 00:00
    Automático
    OK