Cifra Club

Sis

Clairo

Cifra: Principal (violão e guitarra)
Selo Cifra Club: esta cifra foi revisada para atender aos critérios oficiais da nossa Equipe de Qualidade.
tom: E
E|---------------------------------------------------------------------------|
B|---------------------------------------------------------------------------|
G|-----1-----1-------1-----1-----------1-----1------1-----1---------1-----1--|
D|---2-----2-------2-----2-----------2-----2------2-----2---------2------2---|
A|-0-----0-------0-----0--------2--0-----0------0-----0-------2--0-----0-----|
E|----------------------------0-----------------------------0----------------|

E|---------------------------------------------------------------------------|
B|---------------------------------------------------------------------------|
G|-----1-----1----------1-----1------1-----1---------------------------------|
D|---2-----2----------2-----2------2-----2-----------------------------------|
A|-0-----0-------2--0-----0------0-----0-------------------------------------|
E|-------------0-------------------------------------------------------------|


[Verse 1]
           Amaj7                   E
E|--0----0----0----0--------0----0----0----0------------------------------------|
B|--2----2----2----2--------0----0----0----0------------------------------------|
G|--1----1----1----1--------1----1----1----1------------------------------------|
D|--2----2----2----2--------2----2----2----2------------------------------------|
A|--0----0----0----0--------2----2----2----2------------------------------------|
E|--0----0----0----0--------0----0----0----0------------------------------------|
Feelings are so fragile      Egos are always wants


          Amaj7                    E
E|--0----0----0----0--------0----0----0----0---------------------------------------|
B|--2----2----2----2--------0----0----0----0---------------------------------------|
G|--1----1----1----1--------1----1----1----1---------------------------------------|
D|--2----2----2----2--------2----2----2----2---------------------------------------|
A|--0----0----0----0--------2----2----2----2---------------------------------------|
E|--0----0----0----0--------0----0----0----0-|
Ship in a bottle           Collapses under myself oh


           Amaj7                   E
E|--0----0----0----0--------0----0----0----0------------------------------------|
B|--2----2----2----2--------0----0----0----0------------------------------------|
G|--1----1----1----1--------1----1----1----1------------------------------------|
D|--2----2----2----2--------2----2----2----2------------------------------------|
A|--0----0----0----0--------2----2----2----2------------------------------------|
E|--0----0----0----0--------0----0----0----0------------------------------------|
Your soft skin unbroken sin, next to my rough calluses

           Amaj7                   E
E|--0----0----0----0--------0----0----0----0------------------------------------|
B|--2----2----2----2--------0----0----0----0------------------------------------|
G|--1----1----1----1--------1----1----1----1------------------------------------|
D|--2----2----2----2--------2----2----2----2------------------------------------|
A|--0----0----0----0--------2----2----2----2------------------------------------|
E|--0----0----0----0--------0----0----0----0------------------------------------|
Mild kiss sleep paralysis,  tell more about your sis.....ter 


[Chorus]
      G#m                F#m
E|--4----4---------------2----2---------------------------------------------|
B|--4----4---------------2----2---------------------------------------------|
G|--4----4---------------2----2---------------------------------------------|
D|--4-6--4-6-------------2-4--2-4-------------------------------------------|
A|--4-6--4-6-------------2-4--2-4-------------------------------------------|
E|--4----4---------------2----2---------------------------------------------|
Brittle                  Bones hold



      G#m                F#m
E|--4----4---------------2----2---------------------------------------------|
B|--4----4---------------2----2---------------------------------------------|
G|--4----4---------------2----2---------------------------------------------|
D|--4-6--4-6-------------2-4--2-4-------------------------------------------|
A|--4-6--4-6-------------2-4--2-4-------------------------------------------|
E|--4----4---------------2----2---------------------------------------------|
My body                 Together  



      G#m                F#m
E|--4----4---------------2----2---------------------------------------------|
B|--4----4---------------2----2---------------------------------------------|
G|--4----4---------------2----2---------------------------------------------|
D|--4-6--4-6-------------2-4--2-4-------------------------------------------|
A|--4-6--4-6-------------2-4--2-4-------------------------------------------|
E|--4----4---------------2----2---------------------------------------------|
Tender                   Touches


      G#m                F#m
E|--4----4---------------2----2---------------------------------------------|
B|--4----4---------------2----2---------------------------------------------|
G|--4----4---------------2----2---------------------------------------------|
D|--4-6--4-6-------------2-4--2-4-------------------------------------------|
A|--4-6--4-6-------------2-4--2-4-------------------------------------------|
E|--4----4---------------2----2---------------------------------------------|
Mend me with           Feathers


[Verse 2]
           Amaj7                   E
E|--0----0----0----0--------0----0----0----0------------------------------------|
B|--2----2----2----2--------0----0----0----0------------------------------------|
G|--1----1----1----1--------1----1----1----1------------------------------------|
D|--2----2----2----2--------2----2----2----2------------------------------------|
A|--0----0----0----0--------2----2----2----2------------------------------------|
E|--0----0----0----0--------0----0----0----0------------------------------------|


           Amaj7                   E
E|--0----0----0----0--------0----0----0----0------------------------------------|
B|--2----2----2----2--------0----0----0----0------------------------------------|
G|--1----1----1----1--------1----1----1----1------------------------------------|
D|--2----2----2----2--------2----2----2----2------------------------------------|
A|--0----0----0----0--------2----2----2----2------------------------------------|
E|--0----0----0----0--------0----0----0----0------------------------------------|


           Amaj7                   E
E|--0----0----0----0--------0----0----0----0------------------------------------|
B|--2----2----2----2--------0----0----0----0------------------------------------|
G|--1----1----1----1--------1----1----1----1------------------------------------|
D|--2----2----2----2--------2----2----2----2------------------------------------|
A|--0----0----0----0--------2----2----2----2------------------------------------|
E|--0----0----0----0--------0----0----0----0------------------------------------|


           Amaj7                   E
E|--0----0----0----0--------0----0----0----0------------------------------------|
B|--2----2----2----2--------0----0----0----0------------------------------------|
G|--1----1----1----1--------1----1----1----1------------------------------------|
D|--2----2----2----2--------2----2----2----2------------------------------------|
A|--0----0----0----0--------2----2----2----2------------------------------------|
E|--0----0----0----0--------0----0----0----0------------------------------------|


[Chorus]
      G#m                F#m
E|--4----4---------------2----2---------------------------------------------|
B|--4----4---------------2----2---------------------------------------------|
G|--4----4---------------2----2---------------------------------------------|
D|--4-6--4-6-------------2-4--2-4-------------------------------------------|
A|--4-6--4-6-------------2-4--2-4-------------------------------------------|
E|--4----4---------------2----2---------------------------------------------|


      G#m                F#m
E|--4----4---------------2----2---------------------------------------------|
B|--4----4---------------2----2---------------------------------------------|
G|--4----4---------------2----2---------------------------------------------|
D|--4-6--4-6-------------2-4--2-4-------------------------------------------|
A|--4-6--4-6-------------2-4--2-4-------------------------------------------|
E|--4----4---------------2----2---------------------------------------------|


      G#m                F#m
E|--4----4---------------2----2---------------------------------------------|
B|--4----4---------------2----2---------------------------------------------|
G|--4----4---------------2----2---------------------------------------------|
D|--4-6--4-6-------------2-4--2-4-------------------------------------------|
A|--4-6--4-6-------------2-4--2-4-------------------------------------------|
E|--4----4---------------2----2---------------------------------------------|


      G#m                F#m
E|--4----4---------------2----2---------------------------------------------|
B|--4----4---------------2----2---------------------------------------------|
G|--4----4---------------2----2---------------------------------------------|
D|--4-6--4-6-------------2-4--2-4-------------------------------------------|
A|--4-6--4-6-------------2-4--2-4-------------------------------------------|
E|--4----4---------------2----2---------------------------------------------|

    E
E|---0------------------------------------------------|
B|---0------------------------------------------------|
G|---1------------------------------------------------|
D|---2------------------------------------------------|
A|---2------------------------------------------------|
E|---0------------------------------------------------|
Outros vídeos desta música
    202 exibições
      • ½ Tom
      • A
      • Bb
      • B
      • C
      • Db
      • D
      • Eb
      • E
      • F
      • F#
      • G
      • Ab
    • Adicionar à lista

    Afinação da cifra

    Afinador online

      0 comentários

      Ver todos os comentários

      Conseguiu tocar?

      0Tocaram0Ainda não

      Grave um vídeo tocando Sis e nos envie!

      Entre para o Cifra Club PRO

      Tenha acesso a benefícios exclusivos no App e no Site

      • Chega de anúncios

      • Badges exclusivas

      • Mais recursos no app do Afinador

      • Atendimento Prioritário

      • Aumente seu limite de lista

      • Ajude a produzir mais conteúdo

      Cifra Club Pro

      Aproveite o Cifra Club com benefícios exclusivos e sem anúncios
      Cifra Club Pro
      Aproveite o Cifra Club com benefícios exclusivos e sem anúncios
      Ops (: Contenido disponible sólo en portugués.
      OK