Cifra Club

Só Pra Ter Você

ClanK

Cifra: Principal (violão e guitarra)
tom: E
RIFF INICIAL
e|----------------------------------------------------
B|----------------------------------------------------
G|----------------------------------------------------
D|----------------------------------------------------
A|--7-7-7-7-9-9-9-9-5-5-5-5-3-3-3-3-------------------
E|--0-0-0-0-0-0-0-0-0-0-0-0-0-0-0-0-------------------

intro: (E,F#,D,C)

(E,F#,D,C)
Incerteza de um futuro
O passado apagar
O presente me consola 
E você quero encontrar
(E,F#,D,C)
Vou seguindo meu caminho 
Não querendo olhar pra traz
Palavras engasgadas
Procurando algo mais

riff
e|------------------------------------------
B|------------------------------------------
G|--9-9/11-7-7/9-5-5------------------------
D|--x-x-x--x-x-x-x-x------------------------
A|--7-7/9--5-5/7-3-3------------------------
E|------------------------------------------

(E,F#,D,C)
Meu amor
Não quero mais viver, 
se não for pra te esquecer
Solidão
Destinos caminhei, 
e nunca encontrei

RIFF

(E,F#,D,C)
Interrompendo tudo
Minha vida eu deixei
Só pra ter você
(E,F#,D,C)
O que fiz não era certo
Mais desculpe eu tentei
Só pra ter você
00:00 / 00:00
Outros vídeos desta música
Repetir
Outros vídeos desta música
Composição de Tiago e Otávio
Colaboração e revisão:
  • Tiago Rocha
687 exibições
    • ½ Tom
    • A
    • Bb
    • B
    • C
    • Db
    • D
    • Eb
    • E
    • F
    • F#
    • G
    • Ab
  • Adicionar à lista

    0 comentários

    Ver todos os comentários

    Conseguiu tocar?

    0 Tocaram 0 Ainda não

    Grave um vídeo tocando Só Pra Ter Você e nos envie!

    Entre para oCifra Club PRO

    Tenha acesso a benefícios exclusivos no App e no Site

    • Chega de anúncios

    • Prioridade de compra em lançamentos

    • Mais recursos no app do Afinador

    • Atendimento Prioritário

    • Descontos nos produtos Cifra Club

    • Ajude a produzir mais conteúdo

    00:00 / 00:00

    Cifra Club Pro

    Aproveite o Cifra Club com benefícios exclusivos e sem anúncios
    Cifra Club Pro
    Aproveite o Cifra Club com benefícios exclusivos e sem anúncios
    OK