Cifra Club

Dyer Maker

Claudia Leitte

Cifra: Principal (violão e guitarra)
exibições 37.197
Tom: D
D     Bm       G
oh oh oh oh oh oh
A                  
You don't have to go
D     Bm        G
oh oh oh oh oh
A                 
You don't have to go
D     Bm       G
oh oh oh oh oh
A          Bm
Baby please don't go

D    Bm       G
ay ay ay ay ay ay
A                    D
All those tears I cry
   Bm       G
ay ay ay ay ay
A                    D
All those tears I cry
Bm          G
ay ay ay ay ay
A         Bm
Baby please don't go

Bm
When I read the letter 
    A
you wrote It made me
mad mad mad
Bm
When I read the news
        A
That it brought me
To made me
               Bm
sad sad sad
                      A     
But I still love you so
                 G
I can't let you go
          A
I love you
ooh baby I love you

D     Bm       G
oh oh oh oh oh oh
A                   
Every breath I take
D     Bm       G       
oh oh oh oh oh
A                  
Every move I make
D     Bm       G
oh oh oh oh oh
A          Bm
Baby please don't go

D    Bm        G
ay ay ay ay ay ay
   A             D
You hurt me to my soul
   Bm      G
ay ay ay ay 
   A                  D
You hurt me to my soul
   Bm    G
ay ay ay ay 
A         Bm
Honey please don't go

SOLO


D    Bm        G
oh oh oh oh oh oh
A                D
You don't have go
   Bm     G
oh oh oh oh 
A                D
You don't have go
   Bm    G
oh oh oh oh 
A        Bm              D
Baby please don't go


Riff - ela é tocada em uma passagem de uma estrofe para outra
p/ Guitarra
Faz um 'B5'
e|-------------------------0----------------------
B|--3---3---3---3---3---3---5---3-------------
G|-----4---4---4---------------------4~--------
D|------------------------------------------------
A|------------------------------------------------
E|-------------------------------------------------


SOLO
e|--7--5--5----------------------------------------------------------------------------------
B|-------------8--8--8--7--7--5--5--5-------------5---------------------------------------
G|-----------------------------------------7--7--7-----5---6---4-----6-----6--7~---------
D|-------------------------------------------------------------------7-----7-----------------
A|--------------------------------------------------------------------------------------------
E|---------------------------------------------------------------------------------------------

e|--10-----------10--7--5--10---7--5--7--10--7--5--10------10--12--12--10--12-------------
B|------12--10-----------------------------------------------12-------------------------10--10----
G|-----------------------------------------------------------------------------------------------------
D|-----------------------------------------------------------------------------------------------------
A|-----------------------------------------------------------------------------------------------------
E|------------------------------------------------------------------------------------------------------

e|--17--17--15--14--15--16--17--15--14--12------15------14----------------------------19--19~-----
B|----------------------------------------------------14-----15-----14---15--------14----------------------
G|-------------------------------------------------------------------------------12-------14------------------
D|--------------------------------------------------------------------------------------------------------------
A|--------------------------------------------------------------------------------------------------------------
E|---------------------------------------------------------------------------------------------------------------
Acordes para:
    Composição: John Bonham / John Paul Jones / Robert Plant Colaboração e revisão:
    • Ma Giovananni
    • Cayo Souza
    • Joyce

    0 comentários

    mostrar mais comentários

    Conseguiu tocar?

    2 tocaram 0 ainda não

    Grave um vídeo tocando Dyer Maker e mande pra gente!

    00:00 / 00:00
    outros vídeos desta música
    repetir qualidade Automático
    Outros vídeos desta música
    00:00 / 00:00
    Automático
    OK