Cifra Club

Matimba

Claudia Leitte

Cifra: Principal (violão e guitarra)
exibições 3.571
Tom: E
Am              E                      Am
O que vai te tirar de frente da televisão?
           E                       Am
Te desconectar do celular nesse verão?
                 E
O quê gruda na cabeça,
                     Am
Na cintura e no coração
                     E
Essa zorra sacode a pista
                    Am
Todo mundo vai no chão
                                 E
Eh uma mistura de kuduru e guitarrada
                             Am
Eh gostoso feito zumba bote feh
           Am
Balance a anca
           E
Dobre o joelho
                  Am
Partiu  matimba mané
                        E
O que? O que? O que? MATIMBA
                        Am
O que? O que? O que? MATIMBA
                        E
O que? O que? O que? MATIMBA
         Am
MA, TIM, BÁ
                      E
Sou livre, danço da graça,
                                   Am
Porque tudo passa e da vida eu sou fã
                        E                                    Am
O que eh que voce vai fazer se o mundo acabar amanha de me manhã?
                     E                                     Am
Voce pode tá sem dinheiro, lascado e mal pago, mas leva na fé
                                      E7               Am
Se sente a matimba descendo do fio de cabelo à ponta do pé!
                        E
O que? O que? O que? MATIMBA
                        Am
O que? O que? O que? MATIMBA
                        E
O que? O que? O que? MATIMBA
         Am
MA, TIM, BÁ


Am              E                      Am
O que vai te tirar de frente da televisão?
           E                       Am
Te desconectar do celular nesse verão?
                 E
O quê gruda na cabeça,
                     Am
Na cintura e no coração
                     E
Essa zorra sacode a pista
                    Am
Todo mundo vai no chão
                                 E
Eh uma mistura de kuduru e guitarrada
                             Am
Eh gostoso feito zumba bote feh
           Am
Balance a anca
           E
Dobre o joelho
                  Am
Partiu  matimba mané
                        E
O que? O que? O que? MATIMBA
                        Am
O que? O que? O que? MATIMBA
                        E
O que? O que? O que? MATIMBA
         Am
MA, TIM, BÁ
                      E
Sou livre, danço da graça,
                                   Am
Porque tudo passa e da vida eu sou fã
                        E                                    Am
O que eh que voce vai fazer se o mundo acabar amanha de me manhã?
                     E                                     Am
Voce pode tá sem dinheiro, lascado e mal pago, mas leva na fé
                                      E7               Am
Se sente a matimba descendo do fio de cabelo à ponta do pé!
                        E
O que? O que? O que? MATIMBA
                        Am
O que? O que? O que? MATIMBA
                        E
O que? O que? O que? MATIMBA
         Am
MA, TIM, BÁ

Solo:

É uma mistura de kuduro e guitarrada...
E|-17-17-17-15-13-12p13p12---------------------------------------13-12------
B|--------------------------15-12p13p12------------12---------12------------
G|---------------------------------------14--12/13------12-13---------------
D|--------------------------------------------------------------------------
A|--------------------------------------------------------------------------
E|--------------------------------------------------------------------------

E|---------------------15-13p15p13/12----------------------------13--12-----
B|13-------13-------13-----------------15-13/12----12--------12----------13-
G|---13/14----13/14-----------------------------13-----12/13----------------
D|--------------------------------------------------------------------------
A|--------------------------------------------------------------------------
E|--------------------------------------------------------------------------


É gostoso feito zumba bote fé
E|--17-17-17-15-13--12p13p12------------------------------------------------
B|-----------------------------15-12p13p12----------------------------------
G|------------------------------------------14------------------------------
D|--------------------------------------------------------------------------
A|--------------------------------------------------------------------------
E|--------------------------------------------------------------------------


Sou livre, danço de graça
E|-------------------------------------------------------------------------
B|-------------------------------------------------------------------------
G|------------9--9-----------------9--9------------------------------------
D|---7--7--7-----------6--6--6---------------------------------------------
A|-------------------------------------------------------------------------
E|-------------------------------------------------------------------------
Acordes para:
    Colaboração e revisão:
    • Ana Lopez
    • Luciano Sustenido

    0 comentários

    mostrar mais comentários

    Conseguiu tocar?

    0 tocaram 0 ainda não

    Grave um vídeo tocando Matimba e mande pra gente!

    00:00 / 00:00
    outros vídeos desta música
    repetir qualidade Automático
    Outros vídeos desta música
    00:00 / 00:00
    Automático
    OK