Cifra Club

Quase

Cleber e Cauan

Cifra: Principal
exibições 93.870
Tom: B
[Intro] B

E
Ela tentou

Usar uma roupa parecida
F#
Tentou

O mesmo corte de cabelo
D#m
Tentou
                       G#m7
Vou te contar aonde ela errou
      E
Ela errou
                           F#
Quando o beijo não me arrepiou
                              D#m
Quando o abraço dela não encaixou
                        G#m7
O erro dela é não ser você
            E
Ela quase ficou entre você e eu
               F#
Mas eu disse quase 

Só quase entendeu
                D#m
E pra te explicar a distância do quase 
                G#m7               E   F#
É tipo ida e volta daqui até Marte

                       B
Se Deus fez outra de você
                      G#m
Tá decorando a casa dele
                        E
Ele não vai deixar descer
  F#                   B
É uma minha, a outra dele

Riff:


E|----------------14--14-----11---------------------
B|--------12-12------------------12-----------------
G|--------------------------------------------------
D|--------------------------------------------------
A|--------------------------------------------------
E|--------------------------------------------------


E|----------------14--14-----11--11-----------------
B|--------12-12-------------------------------------
G|--------------------------------------------------
D|--------------------------------------------------
A|--------------------------------------------------
E|--------------------------------------------------


E|-----------14--14-----11---------------------11---9-
B|---12-12------------------12----9---12---9----------
G|----------------------------------------------------
D|----------------------------------------------------
A|----------------------------------------------------
E|----------------------------------------------------
Acordes para:
    Composição: Rafael Torres, Bruno Caliman Colaboração e revisão:
    • Vinicius Lima
    • Evilazio Fernandes
    • frederico luquini

    0 comentários

      mostrar mais comentários

      Conseguiu tocar?

      4tocaram1ainda não

      Grave um vídeo tocando Quase e mande pra gente!

      00:00 / 00:00
      outros vídeos desta música
      repetirqualidadeautomática
      Outro vídeos desta música
        00:00 / 00:00
        automática
        OK