Cifra Club

Apollo I The Writing Writer

Coheed And Cambria

Cifra: Principal
exibições 577
Tom: C
Album: Good Apollo I'm Burning Star IV, Volume 1: From Fear Through
 The Eyes of Madness

Verion 1.0 - 09/02/2005 - Original Tab

Tabbed by: Chris Frazier (*)

Here's another one from "Good Apollo" called Apollo I: The Writing Writer.
A lot of the riffs in this song reappear in The Willing Well III: Apollo I:
The Telling Truth as well as a riff from Blood Red Summer so, when I get to
that track, it shouldn't take much extra work to get it tabbed out for
everyone. I'm pretty sure that Phase I is off and Phase II may be a little
as well but the clean guitars on this song are extremely hard to hear.

If anybody has any question, comments, or corrections PLEASE send them to
me at * and you'll be sure to get FULL CREDIT for
anything you submit to me.

This tab is reserved for the following sites, they will be the only
ones to recieve updated version(s) as they become available. If you
retrieved this tab from another website, please visit one of the
websites below to be sure you have the most accurate version:

http://*
http://*
http://*

.  - palm mute
/  - slide up and down to
() - Natural harmonics
*  - Pinch harmonics
h  - Hammer
p  - Pull off
\"  - Tremolo Picking
... - keep playing last chord at steady pace

Guitar I; Electric, Left Speaker (Eb Ab Db Gb Bb Eb)
Guitar II; Electric, Right Speaker (Eb Ab Db Gb Bb Eb)

Phase I (Guitar I and II)
E|-------------------------------||
B|-------------------------------||
G|-------6-7-----4-------4-6-4---||
D|-4b--4-----4-7---4-4-7-------7-||
A|-------------------------------||
E|-------------------------------||
       . . . . . . . . . . . . .

Phase II (Guitars I and II)
E|--------------------------------------------------------------------||
B|--------------------------------------------------------------------||
G|--------------------------7-----------------------------------------||
D|-------5-4-------------10---10-9-7-9------4---5---4---2---0---2-4-2-||
A|-5b--5-----5-7--7b--10----------------2-2---2---2---0---0---0-------||
E|--------------------------------------------------------------------||

Phase III (Guitars I and II)
E|------------------------------||
B|------------------------------||
G|------------------------------|| End on first chord and
D|-------------------7--6--7--6-|| let it ring out
A|-5-...-2-...-9-...-5--4--5--4-||
E|-3-...-0-...-7-...------------||
                     .  .  .  .

Phase III (Guitars II)
E|----9-10-9--------------------------------------------|
B|-10--------12-10-8--7-8-7--5-7-5----------------------|
G|----------------------------------7-9-7----9--7--6--7-|
D|------------------------------------------------------|
A|------------------------------------------------------|
E|------------------------------------------------------|

|----9-10-9---------------------------------------------||
|-10--------12-10-12b--14b----------15--14--15----------||
|-----------------------------------------------14--12--||
|-------------------------------------------------------||
|-------------------------------------------------------||
|-------------------------------------------------------||

Phase III (Guitar II) continued...
E|----9-10-9------------14b--12-10-12--14p12p10-----9-----------||
B|-10--------12-10-12b----------------------------------10--/12-||
G|--------------------------------------------------------------||
D|--------------------------------------------------------------||
A|--------------------------------------------------------------||
E|--------------------------------------------------------------||

Phase IV (Guitar I and II)
E|-14b--12-10--------------------10-||-------------------------------||--------||
B|------------12---10-12---10-12----||-------------------------------||--------||
G|----------------------------------||-10b---9-7-------------------7-||-p6h7p6-||
D|----------------------------------||-----------9-9--7-9-9--7-9-9---||--------||
A|----------------------------------||-------------------------------||--------||
E|----------------------------------||-------------------------------||--------||

Phase V (Guitar I)
E|--------------------------------------||
B|--------------------------------------||
G|--------------------------------------|| End on first chord
D|---------------------------7--6--7--6-|| and let ring out
A|-5-...-2-...-2-4-5-7-9-...-5--4--5--4-||
E|-3-...-0-...-0-2-3-5-7-...------------||
               . . . .       .  .  .  .

Phase V (Guitar II)
E|----9-10-9--------------------------------------------||----9-10-9-----------------|
B|-10--------12-10-8--7-8-7--5-7-5----------------------||-10--------12-10-12b--14b--|
G|----------------------------------7-9-7----9--7--6--7-||---------------------------|
D|------------------------------------------------------||---------------------------|
A|------------------------------------------------------||---------------------------|
E|------------------------------------------------------||---------------------------|

|----9-10-9------------14b--12-10-12--14p12p10-||-9-----------||
|-10--------12-10-12b--------------------------||-----10--/12-||
|----------------------------------------------||-------------||
|----------------------------------------------||-------------||
|----------------------------------------------||-------------||
|----------------------------------------------||-------------||

Phase V (Guitar II) continued...
E|---------------------||
B|-15--14--15----------||
G|-------------14--12--||
D|---------------------||
A|---------------------||
E|---------------------||
Acordes para:

    0 comentários

      mostrar mais comentários

      Conseguiu tocar?

      0tocaram0ainda não

      Grave um vídeo tocando Apollo I The Writing Writer e mande pra gente!

      00:00 / 00:00
      outros vídeos desta música
      repetirqualidadeautomática
      Outro vídeos desta música
        00:00 / 00:00
        automática
        OK