Cifra Club

Disciples Anthem

Coheed And Cambria

Cifra: Principal
exibições 281
Tom: D
Tabbed by: Sean
Email: *

Tuning: Standard (eadgbe)

Part A

(0:00-0:37)
e|--------------|
B|--------------|
G|-12 ----------|
D|-12--11--5----|
A|-10--11--5----|
E|------9 --3---|

Part B
(0:38-1:06)
e|---------------------------------|
B|---------------------------------|
G|---------------------------------|
D|-------4----------5--------------|
A|-----4---4------5----5-----------|
E|--2--------0--3----------0-------|

Part C
(1:07-1:35)
e|-----------------------------|
B|-11----12\11----9--9/11------|
G|----12-------10--------------|   2x
D|-----------------------------|
A|-----------------------------|
E|-----------------------------|

e|-----------------|
B|-----------------|
G|-----------------|
D|--9----7---------| 1x
A|--9----7---------|
E|--7----5---------|

Part D
(1:36-2:01)
e|-----------|
B|-----------|
G|--------7--|
D|-12-or--7--| just stay on this chord
A|-12-----5--|
E|-10--------|

Part E
(2:02-2:26)
e|------------------|
B|------------------|
G|-7----------------|
D|-7--9----5--------|
A|-5--9----5--------|
E|----7----3--------|

Part F
(2:27-2:51)
e|------------------------------------|
B|------------------------------------|
G|------------------------------------|
D|--12--12--9--7----------------------|
A|--12--12--9--7----------------------|
E|--10 --9---7--5---------------------|

Part G
(3:43-3:54)
e|----------------------------------------------------------------------------------|
B|----------------------------------------------------------------------------------|
G|-7--------------------------------------------------------------------------------|
D|-7------------12------------------------------------------------------------------|
A|-5--------or--12------------------------------------------------------------------|
E|--------------10------------------------------------------------------------------|


Complete Run-through:

(0:00-0:37)- Part A
(0:38-1:06)- Part B
(1:07-1:35)- Part C
(1:36-2:01))- Part D
(2:02-2:26))- Part E
(2:27-2:51)- Part F
(2:52-3:16)- Part E
(3:17-3:42)- Part F
(3:43-3:54)- Part G

And that's it. Really simple song.


| /  slide up
| \  slide down
| h  hammer-on
| p  pull-off
| ~  vibrato
| +  harmonic
| x  Mute note
===============================================================================
Acordes para:

    0 comentários

      mostrar mais comentários

      Conseguiu tocar?

      0tocaram0ainda não

      Grave um vídeo tocando Disciples Anthem e mande pra gente!

      00:00 / 00:00
      outros vídeos desta música
      repetirqualidadeautomática
      Outro vídeos desta música
        00:00 / 00:00
        automática
        OK