Enviar cifraEntrar

Everything Evil

Coheed And Cambria

Tab de baixo: Principal
exibições 191
Tabbed By : *
e-mail: *

Tuning:Standard

intro 3x
G|------------------------------------|
D|------------------------------------|
A|------------------------------------|
E|--77-77---77-77------33-33---33-33--|

 verse
G|-------------------------------------------------------------------------|
D|--------------------------7--------------------2------------------7/9----|
A|----------------------9-10---10-9-7---------4-5---4-5-2--------5/7-----9-|
E|77-77-77-9-10---77-77---------------33-33---------------33-33------------|

intro
verse

chorus
G|--------------------------------------------------------------|
D|--------------------------------------------------------------|
A|---------------5/7--------------------------------------------|
E|--33-33-33-33------0-00-0-0-00-0-2-3-33-3-33-3-2-0-00-00-0-00-|
                     
G|----------------------------------------------------------------------|
D|----------------------------------------------------------------------|
A|----------------------------------------------------------------------|
E|--2-3-33-33-3-33-33-2-0-00-0-00-0-2-3-33-3-3-33-33-2-0-00-00-0-00-00-0|

G|-------------------------------||
D|-------------------------------||
A|--33-33-33-33-33-33-33-3333-(3)||
E|-------------------------------||

intro 
verse 
chorus

bridge 4x
G|--------------------------------------------------------------------|
D|--------------------------------------------------------------------|
A|--44-44------------------7-6-6--------------------------------------|
E|--------00-00-00-00-77-77---7-7-77-77-9-55-55-55-55-55-55-55-55-55--|

Bridge part2 (play on second time)
G|--------------------------------------|
D|--------------------------------------|
A|----------22222222--------------------|
E|-00000000----------44444444-55555555--|

Ending (just play until end)  
G|--------------------------------------------------------------------|
D|--------------------------------------------------------------------|
A|-----------------44444444444444-------------------7----7----7----7--|
E|-000000000000000----------------77777777777777-55---55---55---55----|

============================================================================
  • 1
  • 2
  • 3
  • 4
  • 5
  • 6
  • 7
  • 8
  • 9
  • 10
  • 11
  • 12
    Composição: Coheed and Cambria

    0 comentários

      mostrar mais comentários

      Conseguiu tocar?

      0tocaram0ainda não

      Grave um vídeo tocando Everything Evil e mande pra gente!

      00:00 / 00:00
      outros vídeos desta música
      repetirqualidadeautomática
      • automática
      Outro vídeos desta música
        00:00 / 00:00
        automática
        • automática
        Acordes para:violão e guitarra
        dificuldadeexibiçõescontribuições
        2 versões de Tab de baixoexibiçõescontribuições
        2 versões de Guitar Proformatodownloadscontribuição
        fecharplay/pause subir/descer velocidade
        fechar
        OK