Enviar cifraEntrar

Heartshot Kid Disaster

Coheed And Cambria

Cifra: Principal
exibições 285
Tom: D
Tabbed by: joecool71
Email: *, * 

Tuning: Drop D (D A D G B E)

Ahhh... the only song on The Second Stage Turbine Blade which doesn't have a tab
on this website. Although I can see why... the verse riff really isn't very good,
is it? But the chorus and the outro are cool as hell, so here you are. Enjoy!

Intro pt. 1

e|---------------------------------|
B|---------------------------------|
G|-9-9------------9-9-9------------|
D|-x-x-x-10-8-x-x-x-x-x-x-10-8-x-x-|
A|-7-7-x-10-8-x-x-7-7-7-x-10-8-x-x-|
D|-----x-10-8-x-x-------x-10-8-x-x-|


Intro lead (just keep hitting this "chord" over and over)
e|-12-|
B|-14-|
G|----|
D|----|
A|----|
D|----|

Intro pt. 2

e|-----------------------------------0---0-----------------------------------|
B|---------------------------------------------------------------------------|
G|---------------------------------4---2---0---------------------------------|
D|-5-5-5--5-5-5--5-7--0-0-0--0-0-0-----------5-5-5--5-5-5--5-7--0-0-0--0-0-0-|
A|-5-5-5--5-5-5--5-7--0-0-0--0-0-0-----------5-5-5--5-5-5--5-7--0-0-0--0-0-0-|
D|-5-5-5--5-5-5--5-7--0-0-0--0-0-0-----------5-5-5--5-5-5--5-7--0-0-0--0-0-0-|


Verse (chords)
e|-------|
B|-------|
G|-------|
D|-5---0-|
A|-5---0-|
D|-5---0-|

Verse lead

e|---------------------------------|------------------------------------|
B|-------------------------8-8-----|----7-----------------------8-8-----|
G|-----7-----------------------7-7-|------7-------------------------7-7-|
D|-9-9---X5------------------------|-OR-----9-x5------------------------|
A|-------------0-------0-----------|----------------0-------0-----------|
D|-----------0---0-0-0---0---------|--------------0---0-0-0---0---------|


Chorus pt. 1 (chords)

e|----------------|
B|----------------|
G|----------------|
D|----------------|
A|-9---12---5---4-|
D|-9---12---5---4-|

   .   .    .   .
Chorus pt. 2

e|-----------------------------------------------|
B|-----------------------------------------------|
G|-----------------------------------------------|
D|-9-X16--12-X16--5-X16--4-4-4-4-4-4-5-5-7-7-9-9-|
A|-9------12------5------4-4-4-4-4-4-5-5-7-7-9-9-|
D|-9------12------5------4-4-4-4-4-4-5-5-7-7-9-9-|

                           . .   . .
Chorus lead

e|----------------------------------10-----9-----10-----9----------->
B|-10-----------10-----------10---7----7-7---7------7-7---7---5----->
G|----7---9-7------7---9-7------9--------------9------------9---7-7->
D|------9-----9------9-----9---------------------------------------->
A|------------------------------------------------------------------>
D|------------------------------------------------------------------>


e|-------------------10-------12-------14----------------------------------|
B|-12-10----10----------10-------10-------15----17-17-17-17-17-17-17-17-17-|
G|-------11----11----------11-------11-------16-16-16-16-16-16-16-16-16-16-|
D|----------------12-------------------------------------------------------|
A|-------------------------------------------------------------------------|
D|-------------------------------------------------------------------------|


Phase II

e|-----------------------------------------------------|
B|-----------------------------------------------------|
G|-----------------------------------------------------|
D|-7-7-7-7--7-7-7-7--7-7-7-7-7-7-7-7--7-7-7-7--7-7-7-7-|
A|-5-5-5-4--5-5-5-4--5-5-5-4-5-5-5-4--5-5-5-4--5-5-5-4-|
D|-----------------------------------------------------|


Phase II lead

e|-10-10-10-10--10-10-10-10--10-10-10-9-9-9-9--9-9-9-9--9-9-9->
B|-7--7--7--7---7--7--7--7---7--7--7--7-7-7-7--7-7-7-7--7-7-7->
G|------------------------------------------------------------>
D|------------------------------------------------------------>
A|------------------------------------------------------------>
D|------------------------------------------------------------>


e|--------------------------------------------------------------|
B|-----7---7-------7---7----------------------------------------|
G|-7h9---9---9-7h9---9---9-7h9-------7---7-------7---7----------|
D|-----------------------------9-7h9---9---9-7h9---9---9-7h9----|
A|-----------------------------------------------------------10-|
D|--------------------------------------------------------------|


Phase III

e|------------------------------------------------|
B|------------------------------------------------|
G|------------------------------------------------|
D|-5-5-5-5--5-5-5-5--5-5-5-5--5-5-5-5--9--9--7--7-|
A|-5-5-5-5--5-5-5-5--5-5-5-5--5-5-5-5--9--9--7--7-|
D|-5-5-5-5--5-5-5-5--5-5-5-5--5-5-5-5--9--9--7--7-|


Phase III lead

e|--------------------------|
B|--------------7--------10-|
G|-------7----7---7----7----|
D|-/9--9-------------9------|
A|---------9----------------|
D|--------------------------|


Phase IV pt. 1 (chords)
e|-------|
B|-------|
G|-------|
D|-5---4-|
A|-5---4-|
D|-5---4-|

Phase IV pt. 2

e|------------------------|
B|------------------------|
G|------------------------|
D|-5-4-0-0-X3-5-4-5-7-5-4-|
A|-5-4-0-0----5-4-5-7-5-4-|
D|-5-4-0-0----5-4-5-7-5-4-|


LYRICS AND RIFF PLACEMENT

[INTRO PT. 1] X4
[INTRO PT. 1 W/ LEAD] X8
[INTRO PT. 2]
[VERSE W/ LEAD] X8
Still searching for your call today sit down and structure will you be the engineer?
Still tired and dreaming out against and overboard
When pain kills you'll hate me and wait for or
Then call me crazy and pretend I left us discontent and afraid
So what so I'm crazy then send me justice and I'll have Paris in flames
[CHORUS PT. 1]
Still searching for your faith in the arm that killed the president
Relapse waiting here for
[CHORUS PT. 1 W/ LEAD]
Still searching for your face in the crowd that killed the president
Relapse waiting here for
[CHORUS PT. 2]
I need Mayo I won't fail you now
Dear captain send the S.O.S. when we're gonna go down
[CHORUS PT. 2 W/ LEAD]
I need Mayo I won't fail you now (Oh God you're all fucked up for sure)
Dear captain send the S.O.S. when we're gonna go down
[VERSE W/ LEAD] X4
Wound open and squeezing my heart against this pain inflicts
And in passion I bleed for it
But with this what they gave me this book
And flint and a match to go with it
[CHORUS PT. 1]
Still searching for your faith in the arm that killed the president
Relapse waiting here for
[CHORUS PT. 1 W/ LEAD]
Still searching for your face in the crowd that killed the president
Relapse waiting here for
[CHORUS PT. 2]
I need Mayo I won't fail you now
Dear captain send the S.O.S. when we're gonna go down
[CHORUS PT. 2 W/ LEAD]
I need Mayo I won't fail you now (Oh God you're all fucked up for sure)
Dear captain send the S.O.S. when we're gonna go down
[PHASE II LEAD]
[PHASE II W/ LEAD] X3
Have you ever heard the lyrics he sang?
In his thoughtful transmission the words lost sentence remain
Sing his song, sing his song loud
Structure will you be the engineer?
Where's your song or have you lost the key or tone?
[PHASE III W/ LEAD] X4
Thank God for your strength will you hold your breath?
Waiting for me to exhale in the short life lived
[PHASE IV PT. 1]
[PHASE IV PT. 2]
[PHASE IV PT. 1]
When you lived...
[PHASE IV PT. 2]
[PHASE IV PT. 1] X3
When you lived...
[PHASE IV PT. 2] X4

| /  slide up
| \  slide down
| h  hammer-on
| p  pull-off
| ~  vibrato
| +  harmonic
| x  Mute note
===============================================================================
  • 1
  • 2
  • 3
  • 4
  • 5
  • 6
  • 7
  • 8
  • 9
  • 10
  • 11
  • 12
    Acordes para:
      Composição: Coheed and Cambria

      0 comentários

        mostrar mais comentários

        Conseguiu tocar?

        0tocaram0ainda não

        Grave um vídeo tocando Heartshot Kid Disaster e mande pra gente!

        00:00 / 00:00
        outros vídeos desta música
        repetirqualidadeautomática
        • automática
        Outro vídeos desta música
          00:00 / 00:00
          automática
          • automática
          Acordes para:violão e guitarra
          dificuldadeexibiçõescontribuições
          fecharplay/pause subir/descer velocidade
            Acordes para:violão e guitarra
            acordes
            fechar
            OK