Cifra Club

The Afterman

Coheed And Cambria

Cifra: Principal (violão e guitarra)
tom: Bb (forma dos acordes no tom de B) Afinação: Eb Ab Db Gb Bb Eb
Tuning: Half Step Down

x = Palm Mute

   Guitar 1

   Riff

Eb|----------------10------------------------------------------------10----------|
Bb|----12-12-12-12----12-12-12-12-10-12-12-12-12-12-8-12-12-12-12-12----13-12----|
Gb|------------------------------------------------------------------------------|
Db|------------------------------------------------------------------------------|
Ab|------------------------------------------------------------------------------|
Eb|------------------------------------------------------------------------------|
       xx xx xx xx    xx xx xx xx    xx xx    xx xx   xx xx    xx xx

   Guitar 2

   Main Verse

Eb|-----------------------------------------------------------------------|
Bb|-----------------------------------------------------------------------|
Gb|-----------------------------------------------------------------------|
Db|--------4---4-5---5-4---4---4---4-------4---4-5---5-4---4---4---4------|
Ab|------5---5-----5-----5---5---5---5---5---5-----5-----5---4---5---5----|
Eb|----3-------------------------------3----------------------------------|

Eb|-----------------------------------------------------------------------|
Bb|-----------------------------------------------------------------------|
Gb|--------4---4-5---5-4---------5-2-------4---4-5---5-4---------5-2------|
Db|------5---5-----5-----5-3-0-3-----5---5---5-----5-----5-3-0-3-----5----|
Ab|----3-------------------------------3----------------------------------|
Eb|-----------------------------------------------------------------------|

   Bridge

Eb|-----------------------------------------------------------------------|
Bb|-----------------------------------------------------------------------|
Gb|----------------------------------------7-----7-----7-----7-----7------|
Db|--------2-----2-----2-----2-----2-----7-----7-----7-----7-----7--------|
Ab|------2-----2-----2-----2-----2-----5-----5-----5-----5-----5-----5----|
Eb|----0-----0-----0-----0-----0-----0------------------------------------|

Eb|--------------------------------------------|
Bb|--------------------------------------------|
Gb|--------5-----5-----5-----5-----5---5...----|
Db|------5-----5-----5-----5-----5-----5...----|
Ab|----3-----3-----3-----3-----3-----3-3...----|
Eb|--------------------------------------------|

   Chorus Outro (2x)

Eb|---------------------------------------------------------------------------|
Bb|---------------------------------------------------------------------------|
Gb|---------------------------------------------------------------------------|
Db|----5-5-5-5-5---5-5-5-5-5---5-5--5-5---5-5-5-5-5---5-5-5-5-5---5-5--5-5----|
Ab|----5-5-5-5-5---5-5-5-5-5---5-5--5-5---5-5-5-5-5---5-5-5-5-5---5-5--5-5----|
Eb|----3-3-3-3-3---3-3-3-3-3---3-3--3-3---3-3-3-3-3---3-3-3-3-3---3-3--3-3----|

Eb|----------------------------------------------------------------|
Bb|----------------------------------------------------------------|
Gb|---------------------------------------5-5-5-5-5---5-5-5-5-5----|
Db|----2-2-2-2-2---2-2-2-2-2---2-2--2-2---5-5-5-5-5---5-5-5-5-5----|
Ab|----2-2-2-2-2---2-2-2-2-2---2-2--2-2---3-3-3-3-3---3-3-3-3-3----|
Eb|----0-0-0-0-0---0-0-0-0-0---0-0--0-0----------------------------|

Eb|---------------------------------|
Bb|---------------------------------|
Gb|---------------------------------|
Db|------4h0---4h0---4h0---4h0------|
Ab|----5-----5-----5-----5-----5----|
Eb|---------------------------------|

   Outro (4x)

Eb|----------------------------|
Bb|----8-7~--------------------|
Gb|------------7---------------|
Db|----------9------7-7/9\7----|
Ab|--------------10------------|
Eb|----------------------------|
Composição de Claudio Sanchez
Colaboração e revisão:
  • Matheus Bastos
394 exibições
    • ½ Tom
    • A
    • Bb
    • B
    • C
    • Db
    • D
    • Eb
    • E
    • F
    • F#
    • G
    • Ab
  • Adicionar à lista

    0 comentários

    Ver todos os comentários

    Conseguiu tocar?

    0 Tocaram 0 Ainda não

    Grave um vídeo tocando The Afterman e nos envie!

    00:00 / 00:00
    Outros vídeos desta música
    Repetir Qualidade Automático
    Outros vídeos desta música
    00:00 / 00:00
    Automático

    Cifra Club Pro

    Aproveite o Cifra Club com benefícios exclusivos e sem anúncios
    Cifra Club Pro
    Aproveite o Cifra Club com benefícios exclusivos e sem anúncios
    OK