Cifra Club

The Running Free

Coheed And Cambria

Cifra: Principal
exibições 45
Tom: C
   Intro
E|----------------------|
B|----------------------|
G|----------7-----------|
D|---10-9-7-x-10-9-10---|  (4x)
A|---0--0-0-0-0--0-0----|
E|----------------------|
     x  x x x x  x x

   Verso
E|---------------------------------------|
B|---------------------------------------|
G|----------7----------------------------|
D|---10-9-7-x-10-9-10--0-10-9-7-10-9-0---|
A|---0--0-0-0-0--0-0---0-0--0-0-0--0-0---|
E|---------------------------------------|
     x  x x x x  x x   x x  x x x  x

   Pre-Refrão
E|------------------------------------------|
B|-----8-5~----8-6-5-3~---------------------|
G|---5-------5-----------2-4-2~--2----------|
D|---------------------------------3~--2~---|
A|------------------------------------------|
E|------------------------------------------|

   Refrão
E|-------------------------------------------------------------|
B|---13----12-------12-13----12-------12-13----12--------------|
G|------14----12-14-------14----12-14-------14----12-14~-12~---|
D|-------------------------------------------------------------|
A|-------------------------------------------------------------|
E|-------------------------------------------------------------|

E|----------------------------|
B|-------6-5------------------|
G|---5~-----------------------|
D|-----------5~---------------|
A|----------------5-5h7-5-7---|
E|----------------------------|

E|-------------------------------------------------------------|
B|---13----12-------12-13----12-------12-13----12--------------|
G|------14----12-14-------14----12-14-------14----12-14~-12~---|
D|-------------------------------------------------------------|
A|-------------------------------------------------------------|
E|-------------------------------------------------------------|

   Outro
E|--------------------------------------------------------|
B|--------------------------------------------------------|
G|--------------------------------------------------------|
D|--------------------------------------------------------|
A|---7\--5-7-8\--8-7-10--10-10-10-10-10/12-9-9-9-9--7-x---|
E|---5\--------------8---8--8--8--8--8-/10-7-7-7-7--5-x---|
                         x  x  x  x

   Ponte
E|-------------------------------|
B|---10----8---------------------|
G|------9----7--9----------------|
D|----------------10--9-7--------|
A|------------------------10-9---|
E|-------------------------------|

   (Verso)
All non-believers stand aside in fear
A new day's marching through the door
How could you ever think you'd make it here?
Did it bleed? Was it sore?
Through the struggles you've endured

   (Pre-Refrão)
               F5
You've come so far from innocence
    C5
Provided all the consequence
       A5                 F5
Only what does it matter now?

   (Refrão)
                   C5
Cause you're going home
                 G5
You're running free
         A5                       F5
As only you would be if you never owed them anything
     C5                    G5
And now you've found your way out
          A5                           F5
In the trust you've seen your path on home

   (Outro)
Spend your time well before you go
Here in hell

   (Verso)
   (Pe-Refrão)
   (Refrão) 2x
   (Outro)

   (Ponte)
Spend your time well before you go
In a law that's all your own
There are no secrets you can hide
From yourself, in your mind, leave the worst of all behind

   (Refrão)
   (Outro)
Acordes para:
    Composição: Claudio Sanchez / Sam HollanderColaboração e revisão:
    • Matheus Bastos

    0 comentários

      mostrar mais comentários

      Conseguiu tocar?

      0tocaram0ainda não

      Grave um vídeo tocando The Running Free e mande pra gente!

      00:00 / 00:00
      outros vídeos desta música
      repetirqualidadeautomática
      Outro vídeos desta música
        00:00 / 00:00
        automática
        OK