Cifra Club

Just got wicked

Cold

Cifra: Principal (violão e guitarra)
tom: G
Tuning: C F Bb Eb G C

Intro/verse: tap notes  
-----------------------------------------------|---------------------------------------
-----------------------------------------------|---------------------------17/19\17---
-----------------------------------------------|---------------------------------------
--------19-19-19-18-18-18-17-17-17--x3||-------17-17-17/19-17-17--------------
-2-2------------------------------------------|-2-2-----------------------------------
-0-0------------------------------------------|-0-0-----------------------------------

Chorus (guitar 1)                                                            
--------------------------------------------------------------------------------
--------------------------------------------------------------------------------
--------------------------------------------------------------------------------
-----7----------------7---------------------------------------------------------
-2-5----------------5-----------------------------------------------------------
------------------3-------------------------------------------------------------

Chorus (guitar 2)                                                                     
--------------------------------------------------------------------------------
--------------------------------------------------------------------------------
--------------------------------------------------------------------------------
--------------------------------------------------------------------------------
-9-9--12-------5-5--7-----------------------------------------------------------
-7-7--10-------3-3--5-----------------------------------------------------------

right before 2nd chorus                       
--------------------------------------------------------------------------------
--------------------------------------------------------------------------------
--------------------------------------------------------------------------------
--------------------------------------------------------------------------------
-2-2----2-2-2-xx--2-2---2-2-2-xx-2-2--------------------------------------------
-0-0----0-0-0-xx--0-0---0-0-0-xx-0-0--33--3-3-3---------------------------------

Bridge                                                                   
--------------------------------------------------------------------------------
--------------------------------------------------------------------------------
--------------------------------------------------------------------------------
--------------------------------------------------------------------------------
-2-2--777-888-8/10-10-----------------------------------------------------------
-0-0--555-666-6/8--8------------------------------------------------------------
00:00 / 00:00
Outros vídeos desta música
Repetir
Outros vídeos desta música
Composição de Cold / Scooter Ward
Colaboração e revisão:
  • Thiago reis
1.554 exibições
    • ½ Tom
    • A
    • Bb
    • B
    • C
    • Db
    • D
    • Eb
    • E
    • F
    • F#
    • G
    • Ab
  • Adicionar à lista

    0 comentários

    Ver todos os comentários

    Conseguiu tocar?

    0 Tocaram 0 Ainda não

    Grave um vídeo tocando Just got wicked e nos envie!

    Entre para oCifra Club PRO

    Tenha acesso a benefícios exclusivos no App e no Site

    • Chega de anúncios

    • Prioridade de compra em lançamentos

    • Mais recursos no app do Afinador

    • Atendimento Prioritário

    • Descontos nos produtos Cifra Club

    • Ajude a produzir mais conteúdo

    00:00 / 00:00

    Cifra Club Pro

    Aproveite o Cifra Club com benefícios exclusivos e sem anúncios
    Cifra Club Pro
    Aproveite o Cifra Club com benefícios exclusivos e sem anúncios
    OK